PrimaNota.ru - самый крупный в мире бесплатный архив песенных текстов, аккордов, табулатур и нот


Evile - Bathe In Blood - таба, видео

Регистрация Запомнить меня
Войти через:  Facebook Google Twitter Vk Yandex Mail.ru

Evile - Bathe In Blood - таба, видео

Печатать
Просмотров: 375
-------------------------------------------------------------------------------
                             Bathe In Blood - Evile
-------------------------------------------------------------------------------

Tabbed by: Mustaine
Email: kreator11@gmail.com


Tuning: E Flat


D#|------------------------------------------------------------------------------|
A#|------------------------------------------------------------------------------|
F#|------------------------------------------------------------------------------|
C#|-2---------------------------------------------6---2--------------------------|
G#|-2-------6-5-------6-5-7-8-------6-5-------6-5-4---2-------6-5-------6-5-7-8--|
D#|-0--0-0--4-3--0-0--4-3-5-6--0-0--4-3--0-0--4-3-----0--0-0--4-3--0-0--4-3-5-6--|
                                                                              

D#|------------------------------------------------------------------------------|
A#|------------------------------------------------------------------------------|
F#|------------------------------------------------------------------------------|
C#|--------------------7---------------------------------------------------------|
G#|------6-5-------6-5-5---------------------------------------------------------|
D#|-0-0--4-3--0-0--4-3-----------------------------------------------------------|
                                 repeat above 2 bars 2x                       

D#|------------------------------------------------------------------------------|
A#|------------------------------------------------------------------------------|
F#|------------------------------------------------------------------------------|
C#|-9--------------------------------9--------------------------------9----------|
G#|-7---------------10-------8-------7---------------10-------8-------7----------|
D#|----0-0-0-0-0-0---8--0-0--6--0-0-----0-0-0-0-0-0---8--0-0--6--0-0-----0-0-0-0-|
                                                                              

D#|------------------------------------------------------------------------------|
A#|------------------------------------------------------------------------------|
F#|------------------------------------------------------------------------------|
C#|-----------------------9------------------------------------------------------|
G#|------10-------8-------7---------------10-------8\7/8-------------------------|
D#|-0-0---8--0-0--6--0-0-----0-0-0-0-0-0---8--0-0--6\5/6-------------------------|
                                   repeat above 2 bars 2x                     

D#|------------------------------------------------------------------------------|
A#|------------------------------------------------------------------------------|
F#|------------------------------------------------------------------------------|
C#|-9----------------------------------------------------------------------------|
G#|-7-----------------------10-------8---------------3-------6\5/6---------------|
D#|----0-0-0-0-0-0-0-0-0-0---8--0-0--6--0-0-0-0-0-0--1--0-0--4\3/4---------------|
                                                                              

D#|------------------------------------------------------------------------------|
A#|------------------------------------------------------------------------------|
F#|------------------------------------------------------------------------------|
C#|-9------------------------------------------------10-------13\12/13-----------|
G#|-7-----------------------10-------8----------------8-------11\10/11-----------|
D#|----0-0-0-0-0-0-0-0-0-0---8--0-0--6--0-0-0-0-0-0------0-0---------------------|
                                   repeat above 2 bars 2x                     

D#|------------------------------------------------------------------------------|
A#|------------------------------------------------------------------------------|
F#|------------------------------------------------------------------------------|
C#|------13\12/13----------------------------------------------------------------|
G#|------11\10/11----------------------------------------------------------------|
D#|-0-0-------------0-0----------------------------------------------------------|
                                                                              

D#|------------------------------------------------------------------------------|
A#|------------------------------------------------------------------------------|
F#|------------------------------------------------------------------------------|
C#|-9----------------------------------------------------8\7/8-------------------|
G#|-7---------------------------------8\7/8-------4/5\4--6\5/6-------------------|
D#|----0-0-0--0-0-0--0-0-0-0-0-0-0-0--6\5/6--0-0--2/3\2--------------------------|
                               repeat above bar 3x                            

D#|------------------------------------------------------------------------------|
A#|------------------------------------------------------------------------------|
F#|------------------------------------------------------------------------------|
C#|-9----------------------------------------------------------------------------|
G#|-7---------------------------------8\7/8-------4/5\4--3/4\3-------------------|
D#|----0-0-0--0-0-0--0-0-0-0-0-0-0-0--6\5/6--0-0--2/3\2--1/2\1-------------------|
                                                                              

D#|------------------------------------------------------------------------------|
A#|------------------------------------------------------------------------------|
F#|------------------------------------------------------------------------------|
C#|-9----------------------------------------------------------------------------|
G#|-7----------------------------------------------------8\7/8-------------------|
D#|----0-0-0--0-0-0--0-0-0-0-0-0-0-0--0-0-0--0-0-0--0-0--6\5/6-------------------|
                                                                              

D#|------------------------------------------------------------------------------|
A#|------------------------------------------------------------------------------|
F#|------------------------------------------------------------------------------|
C#|-9----------------------------------------------------------------------------|
G#|-7----------------------------------------------------4/5\4-------------------|
D#|----0-0-0--0-0-0--0-0-0-0-0-0-0-0--0-0-0--0-0-0--0-0--2/3\2-------------------|
                                                                              

D#|------------------------------------------------------------------------------|
A#|------------------------------------------------------------------------------|
F#|------------------------------------------------------------------------------|
C#|-9----------------------------------------------------8\7/8-------------------|
G#|-7----------------------------------------------------6\5/6-------------------|
D#|----0-0-0--0-0-0--0-0-0-0-0-0-0-0--0-0-0--0-0-0--0-0--------------------------|
                                                                              

D#|------------------------------------------------------------------------------|
A#|------------------------------------------------------------------------------|
F#|------------------------------------------------------------------------------|
C#|-9----------------------------------------------------------------------------|
G#|-7---------------------------------8\7/8-------4/5\4--3/4\3-------------------|
D#|----0-0-0--0-0-0--0-0-0-0-0-0-0-0--6\5/6--0-0--2/3\2--1/2\1-------------------|
                            repeat above 4 bars 2x                            

D#|------------------------------------------------------------------------------|
A#|------------------------------------------------------------------------------|
F#|------------------------------------------------------------------------------|
C#|------------------------------------------------------------------------------|
G#|-4--3-4-5--3------------------------------------------------------------------|
D#|-2--1-2-3--1------------------------------------------------------------------|
                                                                              

D#|------------------------------------------------------------------------------|
A#|------------------------------------------------------------------------------|
F#|------------------------------------------------------------------------------|
C#|-2---------------------------------------------6------------------------------|
G#|-2-------6-5-------6-5-7-8-------6-5-------6-5-4------------------------------|
D#|-0--0-0--4-3--0-0--4-3-5-6--0-0--4-3--0-0--4-3--------------------------------|
                                                                              

D#|------------------------------------------------------------------------------|
A#|------------------------------------------------------------------------------|
F#|------------------------------------------------------------------------------|
C#|---------5--6-----------------------------------------------------------------|
G#|-4--3-4--3--4-----------------------------------------------------------------|
D#|-2--1-2--3--4-----------------------------------------------------------------|
                                                                              

D#|------------------------------------------------------------------------------|
A#|------------------------------------------------------------------------------|
F#|------------------------------------------------------------------------------|
C#|-9----------------------------------------------------8\7/8-------------------|
G#|-7---------------------------------8\7/8-------4/5\4--6\5/6-------------------|
D#|----0-0-0--0-0-0--0-0-0-0-0-0-0-0--6\5/6--0-0--2/3\2--------------------------|
  BATHE IN BLOOD!              repeat above bar 3x                            

D#|------------------------------------------------------------------------------|
A#|------------------------------------------------------------------------------|
F#|------------------------------------------------------------------------------|
C#|-9----------------------------------------------------------------------------|
G#|-7---------------------------------8\7/8-------4/5\4--3/4\3-------------------|
D#|----0-0-0--0-0-0--0-0-0-0-0-0-0-0--6\5/6--0-0--2/3\2--1/2\1-------------------|
                                                                              

D#|------------------------------------------------------------------------------|
A#|------------------------------------------------------------------------------|
F#|------------------------------------------------------------------------------|
C#|-9-10-------8-----------------------------------------------------------------|
G#|-7--8----8--6-----------------------------------------------------------------|
D#|-------0-6--------------------------------------------------------------------|
                                                                              

D#|------------------------------------------------------------------------------|
A#|------------------------------------------------------------------------------|
F#|------------------------------------------------------------------------------|
C#|-9----------------------------------------------------------------------------|
G#|-7----------------------------------------------------8\7/8-------------------|
D#|----0-0-0--0-0-0--0-0-0-0-0-0-0-0--0-0-0--0-0-0--0-0--6\5/6-------------------|
                                                                              

D#|------------------------------------------------------------------------------|
A#|------------------------------------------------------------------------------|
F#|------------------------------------------------------------------------------|
C#|-9----------------------------------------------------------------------------|
G#|-7----------------------------------------------------4/5\4-------------------|
D#|----0-0-0--0-0-0--0-0-0-0-0-0-0-0--0-0-0--0-0-0--0-0--2/3\2-------------------|
                                                                              

D#|------------------------------------------------------------------------------|
A#|------------------------------------------------------------------------------|
F#|------------------------------------------------------------------------------|
C#|-9----------------------------------------------------8\7/8-------------------|
G#|-7----------------------------------------------------6\5/6-------------------|
D#|----0-0-0--0-0-0--0-0-0-0-0-0-0-0--0-0-0--0-0-0--0-0--------------------------|
                                                                              

D#|------------------------------------------------------------------------------|
A#|------------------------------------------------------------------------------|
F#|------------------------------------------------------------------------------|
C#|-9----------------------------------------------------------------------------|
G#|-7---------------------------------8\7/8-------4/5\4--3/4\3-------------------|
D#|----0-0-0--0-0-0--0-0-0-0-0-0-0-0--6\5/6--0-0--2/3\2--1/2\1-------------------|
                            repeat above 4 bars 2x                            

D#|------------------------------------------------------------------------------|
A#|------------------------------------------------------------------------------|
F#|------------------------------------------------------------------------------|
C#|------------------------------------------------------------------------------|
G#|-4--3-4-5--3------------------------------------------------------------------|
D#|-2--1-2-3--1------------------------------------------------------------------|
                                                                              

D#|------------------------------------------------------------------------------|
A#|------------------------------------------------------------------------------|
F#|------------------------------------------------------------------------------|
C#|-2---------------------------------------------6------------------------------|
G#|-2-------6-5-------6-5-7-8-------6-5-------6-5-4------------------------------|
D#|-0--0-0--4-3--0-0--4-3-5-6--0-0--4-3--0-0--4-3--------------------------------|
                                                                              

D#|------------------------------------------------------------------------------|
A#|------------------------------------------------------------------------------|
F#|------------------------------------------------------------------------------|
C#|---------5--6-----------------------------------------------------------------|
G#|-4--3-4--3--4-----------------------------------------------------------------|
D#|-2--1-2--3--4-----------------------------------------------------------------|
                                                                              

D#|------------------------------------------------------------------------------|
A#|------------------------------------------------------------------------------|
F#|------------------------------------------------------------------------------|
C#|-9----------------------------------------------------8\7/8-------------------|
G#|-7---------------------------------8\7/8-------4/5\4--6\5/6-------------------|
D#|----0-0-0--0-0-0--0-0-0-0-0-0-0-0--6\5/6--0-0--2/3\2--------------------------|
  BATHE IN BLOOD!              repeat above bar 3x                            

D#|------------------------------------------------------------------------------|
A#|------------------------------------------------------------------------------|
F#|------------------------------------------------------------------------------|
C#|-9----------------------------------------------------------------------------|
G#|-7---------------------------------8\7/8-------4/5\4--3/4\3-------------------|
D#|----0-0-0--0-0-0--0-0-0-0-0-0-0-0--6\5/6--0-0--2/3\2--1/2\1-------------------|
                                                                              

D#|------------------------------------------------------------------------------|
A#|------------------------------------------------------------------------------|
F#|------------------------------------------------------------------------------|
C#|-9-10-------8--9--------2-3-----3---2------2----------------------------------|
G#|-7--8----8--6--7--------2-3---3-1---2------2----------------------------------|
D#|-------0-6------------------0-1-----0------0----------------------------------|
                                                                              

D#|------------------------------------------------------------------------------|
A#|------------------------------------------------------------------------------|
F#|------------------------------------------------------------------------------|
C#|-9---------------------8-9-----------------8/10\8---9-------------------------|
G#|-7-------------------8-6-7---------------8-6/-8\6---7-------------------8-6---|
D#|----0-0-0-0-0-0-0-0--6------0-0-0-0-0-0--6-------------0-0-0-0-0-0-0-0--6-----|
                                                                              

D#|------------------------------------------------------------------------------|
A#|------------------------------------------------------------------------------|
F#|------------------------------------------------------------------------------|
C#|-------------------9---------------------8-9-----------------8/10\8---9-------|
G#|-7---6---5---4-----7-------------------8-6-7---------------8-6/-8\6---7-------|
D#|---8---7---6---5------0-0-0-0-0-0-0-0--6------0-0-0-0-0-0--6-------------0-0--|
                                                                              

D#|------------------------------------------------------------------------------|
A#|------------------------------------------------------------------------------|
F#|------------------------------------------------------------------------------|
C#|-----------------------------------------------1-----2------------------------|
G#|--------------8-6--7---6---5---4---3---2---1-----2---2------------------------|
D#|-0-0-0-0-0-0--6------8---7---6---5---4---3---2-------0------------------------|
                                                                              

D#|------------------------------------------------------------------------------|
A#|------------------------------------------------------------------------------|
F#|------------------------------------------------------------------------------|
C#|-9---------------------8-9-----------------8/10\8---9-------------------------|
G#|-7-------------------8-6-7---------------8-6/-8\6---7-------------------8-6---|
D#|----0-0-0-0-0-0-0-0--6------0-0-0-0-0-0--6-------------0-0-0-0-0-0-0-0--6-----|
                                                                              

D#|------------------------------------------------------------------------------|
A#|------------------------------------------------------------------------------|
F#|------------------------------------------------------------------------------|
C#|------------------------------------------------------------------------------|
G#|-7---6---5---4----------------------------------------------------------------|
D#|---8---7---6---5--------------------------------------------------------------|
                           repeat above 2 bars 2x                             

D#|------------------------------------------------------------------------------|
A#|------------------------------------------------------------------------------|
F#|------------------------------------------------------------------------------|
C#|-7---------------------6-7-------------------------------7--------------------|
G#|-5--5-5-5-5-5-5-5-5--6-4-5--5-5-5-5-5-5-5-5-5-5-5-5-5-5--5--5-5-5-5-5-5-5-5---|
D#|---------------------4--------------------------------------------------------|
                                                                              

D#|------------------------------------------------------------------------------|
A#|------------------------------------------------------------------------------|
F#|------------------------------------------------------------------------------|
C#|------------------------------------------------------------------------------|
G#|-6-4--5---4---3---2-----------------------------------------------------------|
D#|-4------6---5---4---3---------------------------------------------------------|
                         repeat above 2 bars 2x                               

D#|------------------------------------------------------------------------------|
A#|------------------------------------------------------------------------------|
F#|------------------------------------------------------------------------------|
C#|-9---------------------8-9-----------------8/10\8---9-------------------------|
G#|-7-------------------8-6-7---------------8-6/-8\6---7-------------------8-6---|
D#|----0-0-0-0-0-0-0-0--6------0-0-0-0-0-0--6-------------0-0-0-0-0-0-0-0--6-----|
                                                                              

D#|------------------------------------------------------------------------------|
A#|------------------------------------------------------------------------------|
F#|------------------------------------------------------------------------------|
C#|------------------------------------------------------------------------------|
G#|-7---6---5---4----------------------------------------------------------------|
D#|---8---7---6---5--------------------------------------------------------------|
                           repeat above 2 bars 2x                             

D#|------------------------------------------------------------------------------|
A#|------------------------------------------------------------------------------|
F#|------------------------------------------------------------------------------|
C#|-7---------------------6-7-------------------------------7--------------------|
G#|-5--5-5-5-5-5-5-5-5--6-4-5--5-5-5-5-5-5-5-5-5-5-5-5-5-5--5--5-5-5-5-5-5-5-5---|
D#|---------------------4--------------------------------------------------------|
                                                                              

D#|------------------------------------------------------------------------------|
A#|------------------------------------------------------------------------------|
F#|------------------------------------------------------------------------------|
C#|------------------------------------------------------------------------------|
G#|-6-4--5---4---3---2-----------------------------------------------------------|
D#|-4------6---5---4---3---------------------------------------------------------|
                         repeat above 2 bars 2x                               

D#|------------------------------------------------------------------------------|
A#|------------------------------------------------------------------------------|
F#|------------------------------2-----------------------------------------------|
C#|-5---4---3---2-------4--2-----2-----------------------------------------------|
G#|---6---5---4---3-----2--2--3--0-----------------------------------------------|
D#|------------------------0--1--------------------------------------------------|
                                                                              

D#|------------------------------------------------------------------------------|
A#|------------------------------------------------------------------------------|
F#|------------------------------------------------------------------------------|
C#|-3---------------------4-3-------------------------------------------2--------|
G#|-1--1-1-1-1-1-1-1-1--3-2-1--1-1-1-1-1-1-4-3-2-1--4-------------------2-5-4----|
D#|---------------------1---------------------------2--2-2-2-2-2-2-2-2--0-3-2----|
   solo rhythm                                                                

D#|------------------------------------------------------------------------------|
A#|------------------------------------------------------------------------------|
F#|------------------------------------------------------------------------------|
C#|------------------------------------------------------------------------------|
G#|--------------4/5-6-7---------------------------------------------------------|
D#|-2-2-2-2-2-2--2/3-4-5---------------------------------------------------------|
                          repeat above 2 bars 2x                              

D#|------------------------------------------------------------------------------|
A#|------------------------------------------------------------------------------|
F#|----------6-------------------2----------3-----3----------2----3-----6--------|
C#|----8-----4-----4-4-4---------2----------1-----1---1-1-1--2----1-----4-----5--|
G#|----6---------0-2-2-2--2-2-2--0----3---0-----0------------0--0-----0-----0-3--|
D#|-5------5------------------------0-1------------------------------------------|
                                                                              

D#|------------------------------------------------------------------------------|
A#|------------------------------------------------------------------------------|
F#|--------2----------3----------------------------------------------------------|
C#|--------2----------1----7-----5-------3---------------------------------------|
G#|-3-3-3--0-----3--0----0-5---0-3---0-0-1---5-3-1-------------------------------|
D#|------------0-1---------------------------------5-3-2-1-----------------------|
                                                                              

D#|------------------------------------------------------------------------------|
A#|------------------------------------------------------------------------------|
F#|------------------------------------------------------------------------------|
C#|-9--------------------------------9--------------------------------9----------|
G#|-7---------------10-------8-------7---------------10-------8-------7----------|
D#|----0-0-0-0-0-0---8--0-0--6--0-0-----0-0-0-0-0-0---8--0-0--6--0-0-----0-0-0-0-|
                                                                              

D#|------------------------------------------------------------------------------|
A#|------------------------------------------------------------------------------|
F#|------------------------------------------------------------------------------|
C#|-----------------------9------------------------------------------------------|
G#|------10-------8-------7---------------10-------8\7/8-------------------------|
D#|-0-0---8--0-0--6--0-0-----0-0-0-0-0-0---8--0-0--6\5/6-------------------------|
                                   repeat above 2 bars 2x 

D#|------------------------------------------------------------------------------|
A#|------------------------------------------------------------------------------|
F#|------------------------------------------------------------------------------|
C#|-9----------------------------------------------------------------------------|
G#|-7----------------------------------------------------8\7/8-------------------|
D#|----0-0-0--0-0-0--0-0-0-0-0-0-0-0--0-0-0--0-0-0--0-0--6\5/6-------------------|
                                                                              

D#|------------------------------------------------------------------------------|
A#|------------------------------------------------------------------------------|
F#|------------------------------------------------------------------------------|
C#|-9----------------------------------------------------------------------------|
G#|-7----------------------------------------------------4/5\4-------------------|
D#|----0-0-0--0-0-0--0-0-0-0-0-0-0-0--0-0-0--0-0-0--0-0--2/3\2-------------------|
                                                                              

D#|------------------------------------------------------------------------------|
A#|------------------------------------------------------------------------------|
F#|------------------------------------------------------------------------------|
C#|-9----------------------------------------------------8\7/8-------------------|
G#|-7----------------------------------------------------6\5/6-------------------|
D#|----0-0-0--0-0-0--0-0-0-0-0-0-0-0--0-0-0--0-0-0--0-0--------------------------|
                                                                              

D#|------------------------------------------------------------------------------|
A#|------------------------------------------------------------------------------|
F#|------------------------------------------------------------------------------|
C#|-9----------------------------------------------------------------------------|
G#|-7---------------------------------8\7/8-------4/5\4--3/4\3-------------------|
D#|----0-0-0--0-0-0--0-0-0-0-0-0-0-0--6\5/6--0-0--2/3\2--1/2\1-------------------|
                            repeat above 4 bars 2x     

D#|------------------------------------------------------------------------------|
A#|------------------------------------------------------------------------------|
F#|------------------------------------------------------------------------------|
C#|------------------------------------------------------------------------------|
G#|-4--3-4-5--3------------------------------------------------------------------|
D#|-2--1-2-3--1------------------------------------------------------------------|
                                                                              

D#|------------------------------------------------------------------------------|
A#|------------------------------------------------------------------------------|
F#|------------------------------------------------------------------------------|
C#|-2---------------------------------------------6------------------------------|
G#|-2-------6-5-------6-5-7-8-------6-5-------6-5-4------------------------------|
D#|-0--0-0--4-3--0-0--4-3-5-6--0-0--4-3--0-0--4-3--------------------------------|
                                                                              

D#|------------------------------------------------------------------------------|
A#|------------------------------------------------------------------------------|
F#|------------------------------------------------------------------------------|
C#|---------5--6-----------------------------------------------------------------|
G#|-4--3-4--3--4-----------------------------------------------------------------|
D#|-2--1-2--3--4-----------------------------------------------------------------|


D#|------------------------------------------------------------------------------|
A#|------------------------------------------------------------------------------|
F#|------------------------------------------------------------------------------|
C#|-2---------------------------------------------6---2--------------------------|
G#|-2-------6-5-------6-5-7-8-------6-5-------6-5-4---2-------6-5-------6-5-7-8--|
D#|-0--0-0--4-3--0-0--4-3-5-6--0-0--4-3--0-0--4-3-----0--0-0--4-3--0-0--4-3-5-6--|
                                                                              

D#|------------------------------------------------------------------------------|
A#|------------------------------------------------------------------------------|
F#|------------------------------------------------------------------------------|
C#|--------------------7---------------------------------------------------------|
G#|------6-5-------6-5-5---------------------------------------------------------|
D#|-0-0--4-3--0-0--4-3-----------------------------------------------------------|    
                     fades out with above 2 bars
                                      
Добавлено: 25.06.2012
Другие материалы по этой песне:
  • Аккорды и текст

Страница создана 25.06.2012
http://primanota.ru/evile/bathe-in-blood-chords.htm
Привет, Гость.
Предлагаем пройти революционный курс по гитаре.
Подарок от PrimaNota.Ru, забирай!