PrimaNota.ru - самый крупный в мире бесплатный архив песенных текстов, аккордов, табулатур и нот


Evile - Armoured Assault - текст песни, таба, видео

Регистрация Запомнить меня
Войти через:  Facebook Google Twitter Vk Yandex Mail.ru

Evile - Armoured Assault - текст песни, таба, видео

Печатать
Просмотров: 155
-------------------------------------------------------------------------------
                             Armoured Assault - Evile
-------------------------------------------------------------------------------

Tabbed by: Mustaine
Email: kreator11@gmail.com


Tuning: E Flat


D#|------------------------------------------------------------------------------|
A#|------------------------------------------------------------------------------|
F#|------------------------------------------------------------------------------|
C#|-----------------------------------------2------------------------------------|
G#|-3-----3-----3---3-----3-----3----3-6-5--2------------------------------------|
D#|-1p0-0-1p0-0-1p0-1p0-0-1p0-0-1p0--1-4-3--0------------------------------------|
                                                                              

D#|------------------------------------------------------------------------------|
A#|------------------------------------------------------------------------------|
F#|------------------------------------------------------------------------------|
C#|--------------------------------------------------8\6-6/9-9-------------------|
G#|--------------------------------------------------6\4-4/7-7-------------------|
D#|-0-0-0-0-0-0-0-0-0-0-0-0-0-0-0-0-0-0-0-0-0-0-0-0------------------------------|
                                                                              

D#|------------------------------------------------------------------------------|
A#|------------------------------------------------------------------------------|
F#|------------------------------------------------------------------------------|
C#|--------------------------------------------------8\6-6/9-9-------------------|
G#|--------------------------------------------------6\4-4/7-7-------------------|
D#|-0-0-0-0-0-0-0-0-0-0-0-0-0-0-0-0-0-0-0-0-0-0-0-0------------------------------|
                                                                              

D#|------------------------------------------------------------------------------|
A#|------------------------------------------------------------------------------|
F#|------------------------------------------------------------------------------|
C#|--------------------------------------------------8\6-6/9-9-------------------|
G#|--------------------------------------------------6\4-4/7-7-------------------|
D#|-0-0-0-0-0-0-0-0-0-0-0-0-0-0-0-0-0-0-0-0-0-0-0-0------------------------------|
                                                                              

D#|------------------------------------------------------------------------------|
A#|------------------------------------------------------------------------------|
F#|------------------------------------------------------------------------------|
C#|------------------------------------------------------------------------------|
G#|------------------------------------------------------------------------------|
D#|-0-0-0-0-0-0-0-0-0-0-0-0-0-0-3-3-3-3-3-11-9-----------------------------------|
                                                                              

D#|------------------------------------------------------------------------------|
A#|------------------------------------------------------------------------------|
F#|------------------------------------------------------------------------------|
C#|--------------------------------------------------8\6-6/9-9-------------------|
G#|--------------------------------------------------6\4-4/7-7-------------------|
D#|-0-0-0-0-0-0-0-0-0-0-0-0-0-0-0-0-0-0-0-0-0-0-0-0------------------------------|
                                                                              

D#|------------------------------------------------------------------------------|
A#|------------------------------------------------------------------------------|
F#|------------------------------------------------------------------------------|
C#|--------------------------------------------------8\6-6/9-9-------------------|
G#|--------------------------------------------------6\4-4/7-7-------------------|
D#|-0-0-0-0-0-0-0-0-0-0-0-0-0-0-0-0-0-0-0-0-0-0-0-0------------------------------|
                                                                              

D#|------------------------------------------------------------------------------|
A#|------------------------------------------------------------------------------|
F#|------------------------------------------------------------------------------|
C#|--------------------------------------------------8\6-6/9-9-------------------|
G#|--------------------------------------------------6\4-4/7-7-------------------|
D#|-0-0-0-0-0-0-0-0-0-0-0-0-0-0-0-0-0-0-0-0-0-0-0-0------------------------------|
                                                                              

D#|------------------------------------------------------------------------------|
A#|------------------------------------------------------------------------------|
F#|------------------------------------------------------------------------------|
C#|---------------------------------------------------------------2--------------|
G#|------------------------------3-----3-----3---3-----3-----3----2--------------|
D#|-0-0-0-0-0-0-0-0-0-0-0-0-0-0--1p0-0-1p0-0-1p0-1p0-0-1p0-0-1p0--0--------------|
                                                                              

D#|------------------------------------------------------------------------------|
A#|------------------------------------------------------------------------------|
F#|------------------------------------------------------------------------------|
C#|-3-----6----------------------------------------------------------------------|
G#|-1--5--4----------------------------------------------------------------------|
D#|----3-------------------------------------------------------------------------|
                                                                              

D#|------------------------------------------------------------------------------|
A#|------------------------------------------------------------------------------|
F#|------------------------------------------------------------------------------|
C#|------------------------------------------------------------------------------|
G#|------------------------------------------------------------------------------|
D#|-0-0-0-0-0--0--0--0--0--0--0-0-0-0-0--0--0--0--0--0--0-0-0-0-0--0--0--0--0--0-|
                                                                              

D#|------------------------------------------------------------------------------|
A#|------------------------------------------------------------------------------|
F#|------------------------------------------------------------------------------|
C#|-6\5-5-8----------------------------------------------------------------------|
G#|-4\3-3-6-7--------------------------------------------------------------------|
D#|---------5--------------------------------------------------------------------|
                             repeat above 2 bars 3x                           

D#|------------------------------------------------------------------------------|
A#|------------------------------------------------------------------------------|
F#|------------------------------------------------------------------------------|
C#|--------------------------------------------------------------4----3----------|
G#|------------------------------------------------------3--6-5--2--5-1----------|
D#|-0-0-0-0-0--0--0--0--0--0--0-0-0-0-0--0--0--0--0--0---1--4-3-----3------------|
                                                                              

D#|------------------------------------------------------------------------------|
A#|------------------------------------------------------------------------------|
F#|------------------------------------------------------------------------------|
C#|----2-----4-------------------------------------------------------------------|
G#|-3--2--3--2-------------------------------------------------------------------|
D#|-1--0--1----------------------------------------------------------------------|
                                                                              

D#|------------------------------------------------------------------------------|
A#|------------------------------------------------------------------------------|
F#|------------------------------------------------------------------------------|
C#|------------------------------------------------------------------------------|
G#|------------------------------------------------------------------------------|
D#|-0-0-0-0-0--0--0--0--0--0--0-0-0-0-0--0--0--0--0--0--0-0-0-0-0--0--0--0--0--0-|
                                                                              

D#|------------------------------------------------------------------------------|
A#|------------------------------------------------------------------------------|
F#|------------------------------------------------------------------------------|
C#|-6\5-5-8----------------------------------------------------------------------|
G#|-4\3-3-6-7--------------------------------------------------------------------|
D#|---------5--------------------------------------------------------------------|
                                                                              

D#|------------------------------------------------------------------------------|
A#|------------------------------------------------------------------------------|
F#|------------------------------------------------------------------------------|
C#|------------------------------------------------------------------------------|
G#|------------------------------------------------------------------------------|
D#|-0-0-0-0-0--0--0--0--0--0--0-0-0-0-0--0--0--0--0--0--0-0-0-0-0--0--0--0--0--0-|
                                                                              

D#|------------------------------------------------------------------------------|
A#|------------------------------------------------------------------------------|
F#|------------------------------------------------------------------------------|
C#|-----2------------------------------------------------------------------------|
G#|-3---2-3-3-6------------------------------------------------------------------|
D#|-1p0-0h1-1-4------------------------------------------------------------------|
                          repeat above 4 bars 2x                              

D#|------------------------------------------------------------------------------|
A#|------------------------------------------------------------------------------|
F#|------------------------------------------------------------------------------|
C#|------------------------------------------------------------------------------|
G#|------------------------------------------------------------------------------|
D#|-3-3-3-3-3-3-3-3-3-3-3-3-3-3-3-3-3-3-3-3-3-3-3-3-3-3-3-3-7-7-7-7-6-6-6-6-6-6--|
                                                                              

D#|------------------------------------------------------------------------------|
A#|------------------------------------------------------------------------------|
F#|------------------------------------------------------------------------------|
C#|----------------------7--6----------------------------------------------------|
G#|----------------------5--4--6-------------------------------------------------|
D#|-6-6-6-6-6-6-6-6-6-6--------4-------------------------------------------------|
                                                                              

D#|------------------------------------------------------------------------------|
A#|------------------------------------------------------------------------------|
F#|------------------------------------------------------------------------------|
C#|------------------------------------------------------------------------------|
G#|------------------------------------------------------------------------------|
D#|-3-3-3-3-3-3-3-3-3-3-3-3-3-3-3-3-3-3-3-3-3-3-3-3-3-3-3-3-7-7-7-7-6-6-6-6-6-6--|
                                                                              

D#|------------------------------------------------------------------------------|
A#|------------------------------------------------------------------------------|
F#|------------------------------------------------------------------------------|
C#|------------------------------------------------------------------------------|
G#|----------------------3--6--3-------------------------------------------------|
D#|-6-6-6-6-6-6-6-6-6-6--1--4--1-------------------------------------------------|
                           repeat above 4 bars 2x                             

D#|------------------------------------------------------------------------------|
A#|------------------------------------------------------------------------------|
F#|------------------------------------------------------------------------------|
C#|-2--9\---------2--9\--5/7-6-----2--9\---------2--9\--5/7-6--2-----------------|
G#|-2--7\-3-6-3---2--7\--3/5-4-3---2--7\-3-6-3---2--7\--3/5-4--2-----------------|
D#|-0-----1-4-1---0------------1---0-----1-4-1---0-------------0-----------------|
                                                                              

D#|------------------------------------------------------------------------------|
A#|------------------------------------------------------------------------------|
F#|------------------------------------------------------------------------------|
C#|------------------------------------------------------------------------------|
G#|-3-----3-----3---3-----3-----3----3-6-5---------------------------------------|
D#|-1p0-0-1p0-0-1p0-1p0-0-1p0-0-1p0--1-4-3---------------------------------------|
                                                                              

D#|------------------------------------------------------------------------------|
A#|------------------------------------------------------------------------------|
F#|------------------------------------------------------------------------------|
C#|--------------------------------------------------8\6-6/9-9-------------------|
G#|--------------------------------------------------6\4-4/7-7-------------------|
D#|-0-0-0-0-0-0-0-0-0-0-0-0-0-0-0-0-0-0-0-0-0-0-0-0------------------------------|
                                                                              

D#|------------------------------------------------------------------------------|
A#|------------------------------------------------------------------------------|
F#|------------------------------------------------------------------------------|
C#|--------------------------------------------------8\6-6/9-9-------------------|
G#|--------------------------------------------------6\4-4/7-7-------------------|
D#|-0-0-0-0-0-0-0-0-0-0-0-0-0-0-0-0-0-0-0-0-0-0-0-0------------------------------|
                                                                              

D#|------------------------------------------------------------------------------|
A#|------------------------------------------------------------------------------|
F#|------------------------------------------------------------------------------|
C#|--------------------------------------------------8\6-6/9-9-------------------|
G#|--------------------------------------------------6\4-4/7-7-------------------|
D#|-0-0-0-0-0-0-0-0-0-0-0-0-0-0-0-0-0-0-0-0-0-0-0-0------------------------------|
                                                                              

D#|------------------------------------------------------------------------------|
A#|------------------------------------------------------------------------------|
F#|------------------------------------------------------------------------------|
C#|------------------------------------------------------------------------------|
G#|------------------------------------------------------------------------------|
D#|-0-0-0-0-0-0-0-0-0-0-0-0-0-0-3-3-3-3-3-11-9-----------------------------------|
                                                                              

D#|------------------------------------------------------------------------------|
A#|------------------------------------------------------------------------------|
F#|------------------------------------------------------------------------------|
C#|--------------------------------------------------8\6-6/9-9-------------------|
G#|--------------------------------------------------6\4-4/7-7-------------------|
D#|-0-0-0-0-0-0-0-0-0-0-0-0-0-0-0-0-0-0-0-0-0-0-0-0------------------------------|
                                                                              

D#|------------------------------------------------------------------------------|
A#|------------------------------------------------------------------------------|
F#|------------------------------------------------------------------------------|
C#|--------------------------------------------------8\6-6/9-9-------------------|
G#|--------------------------------------------------6\4-4/7-7-------------------|
D#|-0-0-0-0-0-0-0-0-0-0-0-0-0-0-0-0-0-0-0-0-0-0-0-0------------------------------|
                                                                              

D#|------------------------------------------------------------------------------|
A#|------------------------------------------------------------------------------|
F#|------------------------------------------------------------------------------|
C#|--------------------------------------------------8\6-6/9-9-------------------|
G#|--------------------------------------------------6\4-4/7-7-------------------|
D#|-0-0-0-0-0-0-0-0-0-0-0-0-0-0-0-0-0-0-0-0-0-0-0-0------------------------------|
                                                                              

D#|------------------------------------------------------------------------------|
A#|------------------------------------------------------------------------------|
F#|------------------------------------------------------------------------------|
C#|---------------------------------------------------------------2--------------|
G#|------------------------------3-----3-----3---3-----3-----3----2--------------|
D#|-0-0-0-0-0-0-0-0-0-0-0-0-0-0--1p0-0-1p0-0-1p0-1p0-0-1p0-0-1p0--0--------------|
                                                                              

D#|------------------------------------------------------------------------------|
A#|------------------------------------------------------------------------------|
F#|------------------------------------------------------------------------------|
C#|-3-----6----------------------------------------------------------------------|
G#|-1--5--4----------------------------------------------------------------------|
D#|----3-------------------------------------------------------------------------|
                                                                              

D#|------------------------------------------------------------------------------|
A#|------------------------------------------------------------------------------|
F#|------------------------------------------------------------------------------|
C#|------------------------------------------------------------------------------|
G#|------------------------------------------------------------------------------|
D#|-0-0-0-0-0--0--0--0--0--0--0-0-0-0-0--0--0--0--0--0--0-0-0-0-0--0--0--0--0--0-|
                                                                              

D#|------------------------------------------------------------------------------|
A#|------------------------------------------------------------------------------|
F#|------------------------------------------------------------------------------|
C#|-6\5-5-8----------------------------------------------------------------------|
G#|-4\3-3-6-7--------------------------------------------------------------------|
D#|---------5--------------------------------------------------------------------|
                                                                              

D#|------------------------------------------------------------------------------|
A#|------------------------------------------------------------------------------|
F#|------------------------------------------------------------------------------|
C#|------------------------------------------------------------------------------|
G#|------------------------------------------------------------------------------|
D#|-0-0-0-0-0--0--0--0--0--0--0-0-0-0-0--0--0--0--0--0--0-0-0-0-0--0--0--0--0--0-|
                                                                              

D#|------------------------------------------------------------------------------|
A#|------------------------------------------------------------------------------|
F#|------------------------------------------------------------------------------|
C#|-----2------------------------------------------------------------------------|
G#|-3---2-3-3-6------------------------------------------------------------------|
D#|-1p0-0h1-1-4------------------------------------------------------------------|
                          repeat above 4 bars 2x                              

D#|------------------------------------------------------------------------------|
A#|------------------------------------------------------------------------------|
F#|------------------------------------------------------------------------------|
C#|------------------------------------------------------------------------------|
G#|------------------------------------------------------------------------------|
D#|-3-3-3-3-3-3-3-3-3-3-3-3-3-3-3-3-3-3-3-3-3-3-3-3-3-3-3-3-7-7-7-7-6-6-6-6-6-6--|
                                                                              

D#|------------------------------------------------------------------------------|
A#|------------------------------------------------------------------------------|
F#|------------------------------------------------------------------------------|
C#|----------------------7--6----------------------------------------------------|
G#|----------------------5--4--6-------------------------------------------------|
D#|-6-6-6-6-6-6-6-6-6-6--------4-------------------------------------------------|
                                                                              

D#|------------------------------------------------------------------------------|
A#|------------------------------------------------------------------------------|
F#|------------------------------------------------------------------------------|
C#|------------------------------------------------------------------------------|
G#|------------------------------------------------------------------------------|
D#|-3-3-3-3-3-3-3-3-3-3-3-3-3-3-3-3-3-3-3-3-3-3-3-3-3-3-3-3-7-7-7-7-6-6-6-6-6-6--|
                                                                              

D#|------------------------------------------------------------------------------|
A#|------------------------------------------------------------------------------|
F#|------------------------------------------------------------------------------|
C#|------------------------------------------------------------------------------|
G#|----------------------3--6--3-------------------------------------------------|
D#|-6-6-6-6-6-6-6-6-6-6--1--4--1-------------------------------------------------|
                           repeat above 4 bars 2x                             

D#|------------------------------------------------------------------------------|
A#|------------------------------------------------------------------------------|
F#|------------------------------------------------------------------------------|
C#|-2--9\---------2--9\--5/7-6-----2--9\---------2--9\--5/7-6--2-----------------|
G#|-2--7\-3-6-3---2--7\--3/5-4-3---2--7\-3-6-3---2--7\--3/5-4--2-----------------|
D#|-0-----1-4-1---0------------1---0-----1-4-1---0-------------0-----------------|
                                                                              

D#|------------------------------------------------------------------------------|
A#|------------------------------------------------------------------------------|
F#|------------------------------------------------------------------------------|
C#|------------------------------------------------------------------------------|
G#|-3-----3-----3---3-----3-----3----3-6-5---------------------------------------|
D#|-1p0-0-1p0-0-1p0-1p0-0-1p0-0-1p0--1-4-3---------------------------------------|
                                                                              

D#|------------------------------------------------------------------------------|
A#|------------------------------------------------------------------------------|
F#|------------------------------------------------------------------------------|
C#|--------------------------------------------------8\6-6/9-9-------------------|
G#|--------------------------------------------------6\4-4/7-7-------------------|
D#|-0-0-0-0-0-0-0-0-0-0-0-0-0-0-0-0-0-0-0-0-0-0-0-0------------------------------|
                                                                              

D#|------------------------------------------------------------------------------|
A#|------------------------------------------------------------------------------|
F#|------------------------------------------------------------------------------|
C#|--------------------------------------------------8\6-6/9-9-------------------|
G#|--------------------------------------------------6\4-4/7-7-------------------|
D#|-0-0-0-0-0-0-0-0-0-0-0-0-0-0-0-0-0-0-0-0-0-0-0-0------------------------------|
                                                                              

D#|------------------------------------------------------------------------------|
A#|------------------------------------------------------------------------------|
F#|------------------------------------------------------------------------------|
C#|--------------------------------------------------8\6-6/9-9-------------------|
G#|--------------------------------------------------6\4-4/7-7-------------------|
D#|-0-0-0-0-0-0-0-0-0-0-0-0-0-0-0-0-0-0-0-0-0-0-0-0------------------------------|
                                                                              

D#|------------------------------------------------------------------------------|
A#|------------------------------------------------------------------------------|
F#|------------------------------------------------------------------------------|
C#|------------------------------------------------------------------------------|
G#|------------------------------------------------------------------------------|
D#|-0-0-0-0-0-0-0-0-0-0-0-0-0-0-3-3-3-3-3-11-9-----------------------------------|
                              repeat above 4 bars 2x                          

D#|------------------------------------------------------------------------------|
A#|------------------------------------------------------------------------------|
F#|------------------------------------------------------------------------------|
C#|---------------------------------------------------------7-6------------------|
G#|---------------------------------------------------------5-4------------------|
D#|-3-3-3-3-3-3-3-3-3-3-3-3-3-3-3-3-3-3-3-3-3-3-3-3-3-3-3-3-----3-3-3-3-3-3-3-3--|
                                                                              

D#|------------------------------------------------------------------------------|
A#|------------------------------------------------------------------------------|
F#|------------------------------------------------------------------------------|
C#|---------------------------------7-6------------------------------------------|
G#|---------------------------------5-4------------------------------------------|
D#|-3-3-3-3-3-3-3-3-3-3-3-3-3-3-3-3-----3-3-3-3-3-3-3-3-3-3-3-3-3-3-3-3-3-3-3-3--|
                                                                              

D#|------------------------------------------------------------------------------|
A#|------------------------------------------------------------------------------|
F#|------------------------------------------------------------------------------|
C#|---------7-6--------------------------6-9-5-6---------------------------------|
G#|---------5-4--------------------------4-7-3-4---------------------------------|
D#|-3-3-3-3-----3-3-3-3-3-3-3-3-3-3-3-3------------------------------------------|
                            repeat above 3 bars 2x                            

D#|------------------------------------------------------------------------------|
A#|------------------------------------------------------------------------------|
F#|------------------------------------------------------------------------------|
C#|------------------------------------------------------------------------------|
G#|------------------------------------------------------------------------------|
D#|-0-0-0-0-0-0-0-0-0-0-0-0-0-0-0-0-0-0-0-0-0-0-0-0-0-0-0-0-5-5-5-5-4-4-4-4-4-4--|
                                                                              

D#|------------------------------------------------------------------------------|
A#|------------------------------------------------------------------------------|
F#|------------------------------------------------------------------------------|
C#|------------------------------------------------------------------------------|
G#|------------------------------------------------------------------------------|
D#|-4-4-4-4-4-4-4-4-4-4-4-4-4-4-4-4-4-4-4-4-4-4-1-1-1-1--------------------------|
                                                                              

D#|------------------------------------------------------------------------------|
A#|------------------------------------------------------------------------------|
F#|------------------------------------------------------------------------------|
C#|------------------------------------------------------------------------------|
G#|------------------------------------------------------------------------------|
D#|-0-0-0-0-0-0-0-0-0-0-0-0-0-0-0-0-0-0-0-0-0-0-0-0-0-0-0-0-5-5-5-5-4-4-4-4-4-4--|
                                                                              

D#|------------------------------------------------------------------------------|
A#|------------------------------------------------------------------------------|
F#|------------------------------------------------------------------------------|
C#|------------------------------------------------------------------------------|
G#|----------------------3--6--3-------------------------------------------------|
D#|-4-4-4-4-4-4-4-4-4-4--1--4--1-------------------------------------------------|
                                                                              

D#|------------------------------------------------------------------------------|
A#|------------------------------------------------------------------------------|
F#|------------------------------------------------------------------------------|
C#|------------------------------------------------------------------------------|
G#|------------------------------------------------------------------------------|
D#|-0-0-0-0-0-0-0-0-0-0-0-0-0-0-0-0-0-0-0-0-0-0-0-0-0-0-0-0-5-5-5-5-4-4-4-4-4-4--|
                                                                              

D#|------------------------------------------------------------------------------|
A#|------------------------------------------------------------------------------|
F#|------------------------------------------------------------------------------|
C#|------------------------------------------------------------------------------|
G#|------------------------------------------------------------------------------|
D#|-4-4-4-4-4-4-4-4-4-4-4-4-4-4-4-4-4-4-4-4-4-4-1-1-1-1--------------------------|
                                                                              

D#|------------------------------------------------------------------------------|
A#|------------------------------------------------------------------------------|
F#|------------------------------------------------------------------------------|
C#|------------------------------------------------------------------------------|
G#|------------------------------------------------------------------------------|
D#|-0-0-0-0-0-0-0-0-0-0-0-0-0-0-0-0-0-0-0-0-0-0-0-0-0-0-0-0-5-5-5-5-4-4-4-4-4-4--|
                                                                              

D#|------------------------------------------------------------------------------|
A#|------------------------------------------------------------------------------|
F#|------------------------------------------------------------------------------|
C#|----------------------------2-------------------------------------------------|
G#|----------------------3--6--2-------------------------------------------------|
D#|-4-4-4-4-4-4-4-4-4-4--1--4--0-------------------------------------------------|
                                                                              

D#|------------------------------------------------------------------------------|
A#|------------------------------------------------------------------------------|
F#|------------------------------------------------------------------------------|
C#|----------------------------------------------3-6-5---------------------------|
G#|-3-----3-----3---3-----3-----3----------2-5-4---------------------------------|
D#|-1p0-0-1p0-0-1p0-1p0-0-1p0-0-1p0--1-4-3---------------------------------------|
                                                                              

D#|------------------------------------------------------------------------------|
A#|------------------------------------------------------------------------------|
F#|------------------------------------------------------------------------------|
C#|--------------------------------------------------8\6-6/9-9-------------------|
G#|--------------------------------------------------6\4-4/7-7-------------------|
D#|-0-0-0-0-0-0-0-0-0-0-0-0-0-0-0-0-0-0-0-0-0-0-0-0------------------------------|
                                                                              

D#|------------------------------------------------------------------------------|
A#|------------------------------------------------------------------------------|
F#|------------------------------------------------------------------------------|
C#|--------------------------------------------------8\6-6/9-9-------------------|
G#|--------------------------------------------------6\4-4/7-7-------------------|
D#|-0-0-0-0-0-0-0-0-0-0-0-0-0-0-0-0-0-0-0-0-0-0-0-0------------------------------|
                                                                              

D#|------------------------------------------------------------------------------|
A#|------------------------------------------------------------------------------|
F#|------------------------------------------------------------------------------|
C#|--------------------------------------------------8\6-6/9-9-------------------|
G#|--------------------------------------------------6\4-4/7-7-------------------|
D#|-0-0-0-0-0-0-0-0-0-0-0-0-0-0-0-0-0-0-0-0-0-0-0-0------------------------------|
                                                                              

D#|------------------------------------------------------------------------------|
A#|------------------------------------------------------------------------------|
F#|------------------------------------------------------------------------------|
C#|------------------------------------------------------------------------------|
G#|------------------------------------------------------------------------------|
D#|-0-0-0-0-0-0-0-0-0-0-0-0-0-0-3-3-3-3-3-11-9-----------------------------------|
                                                                              

D#|------------------------------------------------------------------------------|
A#|------------------------------------------------------------------------------|
F#|------------------------------------------------------------------------------|
C#|--------------------------------------------------8\6-6/9-9-------------------|
G#|--------------------------------------------------6\4-4/7-7-------------------|
D#|-0-0-0-0-0-0-0-0-0-0-0-0-0-0-0-0-0-0-0-0-0-0-0-0------------------------------|
                                                                              

D#|------------------------------------------------------------------------------|
A#|------------------------------------------------------------------------------|
F#|------------------------------------------------------------------------------|
C#|--------------------------------------------------8\6-6/9-9-------------------|
G#|--------------------------------------------------6\4-4/7-7-------------------|
D#|-0-0-0-0-0-0-0-0-0-0-0-0-0-0-0-0-0-0-0-0-0-0-0-0------------------------------|
                                                                              

D#|------------------------------------------------------------------------------|
A#|------------------------------------------------------------------------------|
F#|------------------------------------------------------------------------------|
C#|--------------------------------------------------8\6-6/9-9-------------------|
G#|--------------------------------------------------6\4-4/7-7-------------------|
D#|-0-0-0-0-0-0-0-0-0-0-0-0-0-0-0-0-0-0-0-0-0-0-0-0------------------------------|
                                                                              

D#|------------------------------------------------------------------------------|
A#|------------------------------------------------------------------------------|
F#|------------------------------------------------------------------------------|
C#|---------------------------------------------------------------2--------------|
G#|------------------------------3-----3-----3---3-----3-----3----2--------------|
D#|-0-0-0-0-0-0-0-0-0-0-0-0-0-0--1p0-0-1p0-0-1p0-1p0-0-1p0-0-1p0--0--------------|
                                                                              

D#|------------------------------------------------------------------------------|
A#|------------------------------------------------------------------------------|
F#|------------------------------------------------------------------------------|
C#|-3-----6----------------------------------------------------------------------|
G#|-1--5--4----------------------------------------------------------------------|
D#|----3-------------------------------------------------------------------------|
                                                                              

D#|------------------------------------------------------------------------------|
A#|------------------------------------------------------------------------------|
F#|------------------------------------------------------------------------------|
C#|------------------------------------------------------------------------------|
G#|------------------------------------------------------------------------------|
D#|-0-0-0-0-0--0--0--0--0--0--0-0-0-0-0--0--0--0--0--0--0-0-0-0-0--0--0--0--0--0-|
                                                                              

D#|------------------------------------------------------------------------------|
A#|------------------------------------------------------------------------------|
F#|------------------------------------------------------------------------------|
C#|-6\5-5-8----------------------------------------------------------------------|
G#|-4\3-3-6-7--------------------------------------------------------------------|
D#|---------5--------------------------------------------------------------------|
                                                                              

D#|------------------------------------------------------------------------------|
A#|------------------------------------------------------------------------------|
F#|------------------------------------------------------------------------------|
C#|------------------------------------------------------------------------------|
G#|------------------------------------------------------------------------------|
D#|-0-0-0-0-0--0--0--0--0--0--0-0-0-0-0--0--0--0--0--0--0-0-0-0-0--0--0--0--0--0-|
                                                                              

D#|------------------------------------------------------------------------------|
A#|------------------------------------------------------------------------------|
F#|------------------------------------------------------------------------------|
C#|-----2------------------------------------------------------------------------|
G#|-3---2-3-3-6------------------------------------------------------------------|
D#|-1p0-0h1-1-4------------------------------------------------------------------|
                          repeat above 4 bars 2x                              

D#|------------------------------------------------------------------------------|
A#|------------------------------------------------------------------------------|
F#|------------------------------------------------------------------------------|
C#|------------------------------------------------------------------------------|
G#|------------------------------------------------------------------------------|
D#|-3-3-3-3-3-3-3-3-3-3-3-3-3-3-3-3-3-3-3-3-3-3-3-3-3-3-3-3-7-7-7-7-6-6-6-6-6-6--|
                                                                              

D#|------------------------------------------------------------------------------|
A#|------------------------------------------------------------------------------|
F#|------------------------------------------------------------------------------|
C#|----------------------7--6----------------------------------------------------|
G#|----------------------5--4--6-------------------------------------------------|
D#|-6-6-6-6-6-6-6-6-6-6--------4-------------------------------------------------|
                                                                              

D#|------------------------------------------------------------------------------|
A#|------------------------------------------------------------------------------|
F#|------------------------------------------------------------------------------|
C#|------------------------------------------------------------------------------|
G#|------------------------------------------------------------------------------|
D#|-3-3-3-3-3-3-3-3-3-3-3-3-3-3-3-3-3-3-3-3-3-3-3-3-3-3-3-3-7-7-7-7-6-6-6-6-6-6--|
                                                                              

D#|------------------------------------------------------------------------------|
A#|------------------------------------------------------------------------------|
F#|------------------------------------------------------------------------------|
C#|------------------------------------------------------------------------------|
G#|----------------------3--6--3-------------------------------------------------|
D#|-6-6-6-6-6-6-6-6-6-6--1--4--1-------------------------------------------------|
                           repeat above 4 bars 2x                             

D#|------------------------------------------------------------------------------|
A#|------------------------------------------------------------------------------|
F#|------------------------------------------------------------------------------|
C#|-2--9\---------2--9\--5/7-6-----2--9\---------2--9\--5/7-6------2--9\---------|
G#|-2--7\-3-6-3---2--7\--3/5-4-3---2--7\-3-6-3---2--7\--3/5-4--3---2--7\-3-6-3---|
D#|-0-----1-4-1---0------------1---0-----1-4-1---0-------------1---0-----1-4-1---|
                                                                              

D#|------------------------------------------------------------------------------|
A#|------------------------------------------------------------------------------|
F#|------------------------------------------------------------------------------|
C#|-2--9\--5/7--6-----2--9\---------2--9\--5/7-6---2-----------------------------|
G#|-2--7\--3/5--4-3---2--7\-3-6-3---2--7\--3/5-4---2-----------------------------|
D#|-0-------------1---0-----1-4-1---0--------------0-----------------------------|
                                                                              

D#|------------------------------------------------------------------------------|
A#|------------------------------------------------------------------------------|
F#|------------------------------------------------------------------------------|
C#|--------------------------------------------------------------3-6-5-----------|
G#|-3-----3-----3---3-----3-----3---3-----3-----3----------2-5-4-----------------|
D#|-1p0-0-1p0-0-1p0-1p0-0-1p0-0-1p0-1p0-0-1p0-0-1p0--1-4-3-----------------------|
                                                                              

D#|------------------------------------------------------------------------------|
A#|------------------------------------------------------------------------------|
F#|------------------------------------------------------------------------------|
C#|------2-----------------------------------------------------------------------|
G#|------2-----------------------------------------------------------------------|
D#|-0-0--0-----------------------------------------------------------------------|
                                                                              

Добавлено: 28.06.2012
Другие материалы по этой песне:

Страница создана 28.06.2012
http://primanota.ru/evile/armoured-assault-chords.htm
Привет, Гость.
Предлагаем пройти революционный курс по гитаре.
Подарок от PrimaNota.Ru, забирай!