PrimaNota.ru - самый крупный в мире бесплатный архив песенных текстов, аккордов, табулатур и нот


Evil-dog - A Sweet Drunk - таба, видео

Регистрация Запомнить меня
Войти через:  Facebook Google Twitter Vk Yandex Mail.ru

Evil-dog - A Sweet Drunk - таба, видео

Печатать
Просмотров: 101
a sweet drunk - evil dog/www.evildog.com 

Tuning:E A D G B e
Tab by Gustavo Falleiros (x_led_x@hotmail.com):
Song by: Evil-dog
Key: M= Palm Muting     s=slide   h=hammer on     p=pull of


Guitar 1
riff #1
e|---------------|
B|---------------|
G|---------7-----|
D|-7---9---7---7-| 
A|-7---9---5---7-|
E|-5---7-------5-|

riff #2
     M M M M   M M M M   M M   M M M M   M M M M   M M
e|-----------------------------------------------------|
B|-----------------------------------------------------|
G|-----------------------------------------------------|
D|-7---------7---------7-----7---------7---------7-----|
A|-7---------7---------7-----7---------7---------7-----|
E|-5-5-5-5-5-5-5-5-5-5-5-5-5-5-5-5-5-5-5-5-5-5-5-5-5-5-|


     M M M M   M M M M   M M   M M M M   M M M M   M M
e|-----------------------------------------------------|
B|-----------------------------------------------------|
G|-----------------------------------------------------|
D|-9---------9---------9-----9---------9---------9-----|
A|-9---------9---------9-----9---------9---------9-----|
E|-7-7-7-7-7-7-7-7-7-7-7-7-7-7-7-7-7-7-7-7-7-7-7-7-7-7-|


     M M M M   M M M M   M M   M M M M   M M M M   M M
e|-----------------------------------------------------|
B|-----------------------------------------------------|
G|-3---------3---------3-----3---------3---------3-----|
D|-3---------3---------3-----3---------3---------3-----|
A|-5-5-5-5-5-5-5-5-5-5-5-5-5-5-5-5-5-5-5-5-5-5-5-5-5-5-|
E|-----------------------------------------------------|


     M M M M   M M M M   M M   M M M M   M M M M   M M
e|-----------------------------------------------------|
B|-----------------------------------------------------|
G|-----------------------------------------------------|
D|-7---------7---------7-----7---------7---------7-----|
A|-7---------7---------7-----7---------7---------7-----|
E|-5-5-5-5-5-5-5-5-5-5-5-5-5-5-5-5-5-5-5-5-5-5-5-5-5-5-|

riff #3                                       
     M M M M M M M M   M M M M M M M M  
e|-------------------------------------| 
B|-------------------------------------| 
G|-------------------9-----------------| 
D|-7-----------------9-----------------| 
A|-7-----------------7-7-7-7-7-7-7-7-7-| 
E|-5-5-5-5-5-5-5-5-5-------------------| 
                                         
                                          
     M M M M M M M M   M   M   M          
e|-------------------------------------| 
B|-------------------------------------| 
G|-----------------------6---7---9-----| 
D|-9-----------------9---6---7---9-----| 
A|-9-----------------9-4-4-5-5-7-7-----| 
E|-7-7-7-7-7-7-7-7-7-7-----------------|

riff #4
     M M M M   M M M M   M M   M M M M   M M M M   M M
e|-----------------------------------------------------|
B|-----------------------------------------------------|
G|-----------------------------------------------------|
D|-7---------7---------7-----9---------9---------9-----|
A|-7---------7---------7-----9---------9---------9-----|
E|-5-5-5-5-5-5-5-5-5-5-5-5-5-7-7-7-7-7-7-7-7-7-7-7-5-5-|

     M M M M   M M M M   M M   M M M M   M M M M  
e|-----------------------------------------------------|
B|-----------------------------------------------------|
G|-3---------3---------3-----3---------3---------3-3-3-|
D|-3---------3---------3-----3---------3---------3-3-3-|
A|-5-5-5-5-5-5-5-5-5-5-5-5-5-5-5-5-5-5-5-5-5-5-5-5-5-5-|
E|-----------------------------------------------------|


Guitar 2
riff #1
e|-----------------------------|
B|-----------------------------|
G|----------9-999-7--7-6--6----|
D|-7--7h9p7-----------------99-| 
A|-----------------------------|
E|-----------------------------|

riff #2
e|-------------------------------------------------|
B|-------------------------------------------------|
G|-9-9-999-7-7-777-7-7-777-6-6-666-4-4-444-2-2-222-|
D|-------------------------------------------------|
A|-------------------------------------------------|
E|-------------------------------------------------|

riff #3
e|--------------12-121212-14-12-10-12-10-9-10--12----|
B|-10--10h12p12-----------------------------------10-|
G|---------------------------------------------------|
D|---------------------------------------------------|
A|---------------------------------------------------|
E|---------------------------------------------------|

e|-------------9-10-12s13s12-------------------------|
B|-101010--12----------------------------------------|
G|---------------------------------------------------|
D|---------------------------------------------------|
A|---------------------------------------------------|
E|---------------------------------------------------|

riff #4
e|---------------------------------------------------|
B|---------------------------------------------------|
G|-9---s11-9---7---9---------------------------------|
D|--------------------9s7----------------------------|
A|---------------------------------------------------|
E|---------------------------------------------------|
Добавлено: 27.06.2013
Другие материалы по этой песне:
  • Аккорды и текст

Страница создана 27.06.2013
http://primanota.ru/evil-dog/a-sweet-drunk-chords.htm
Привет, Гость.
Предлагаем пройти революционный курс по гитаре.
Подарок от PrimaNota.Ru, забирай!