PrimaNota.ru - самый крупный в мире бесплатный архив песенных текстов, аккордов, табулатур и нот


Evil Cowards - Gravy Train - аккорды и текст, видео

Регистрация Запомнить меня
Войти через:  Facebook Google Twitter Vk Yandex Mail.ru

Evil Cowards - Gravy Train - аккорды и текст, видео

Печатать
Просмотров: 145
Gravy Train
Evil Cowards
-------------_-----------------------------------------------------
          (o   o)            Gravy Train - Evil Cowards
-------- (o     o) ------------------------------------------------
          (oo o )
            | 'o'
Tabbed by   | |NATURIST     Email: ItsOnlyNaturist@gmail.com

INTRO
-----
   E               C#m             B                   G#m
   1   .   2   .   3   .   4   .   1   .   2   .   3   .   4   .
e|-----------------------------------------------------------------|
B|-----------------5-----------5---4-------------------4-------4---|
G|-----1---1-------6-----------6---4-------------------4-------4---| x2
D|-----2---2---4---6-----------6---4-------------------6-------6---|
A|-----2---2-------4-----------4---2-------------------6-------6---|
E|-0---------------------------------------------------4-------4---|

VERSE 1
-------
E              C#m            B                G#m
 When you were young you were such a ripe tomato
E                C#m       B               G#m
 You'd spend all afternoon peeling my potato
E              C#m          B                 F#/B B F#/B B 
 We'd drive forever in each other's sweet aroma
E           C#m            B
 We sleep together in each other's
 F#/B x8
Food coma

CHORUS 1
--------
    E             A                    C#m           B
But I can't take another bite this has got to stop tonight (stop tonight)
E             A                    C#m           B
I can't take another bite this has got to stop tonight (stop tonight)
E             A                    C#m           B
I can't take another bite this has got to stop tonight (stop tonight)
B                                C#m          A
You might find it strange when I eat away the pain
    B                                   C#m        A
The wheels and the chains are coming off our gravy train
  E      A       E A
Toniii~~~iiiight
  E      A       E E
Toniii~~~iiiight

OPTIONAL TAB
------------
The E, A chord progression during the "Toniii~~~iiiight" part can be played
like this to include the high D#, E synth notes:
       E               A
       1   .   2   .   3   .   4   .
    e|---------0-----------------------|
    B|-----4---0-----------4---5-------|
    G|-1---X---1--X-X--6---6---6--X-X--| x3
    D|-2---2---2--X-X--7---7---7--X-X--|
    A|-2---2---2--X-X--7---7---7--X-X--|
    E|-0---0---0--X-X--5---5---5--X-X--|
    
       E               E
       1   .   2   .   3   .   4   .
    e|---------0---------------0-------|
    B|-----4---0-----------4---0-------|
    G|-1---X---1--X-X--1---X---1-------| x1
    D|-2---2---2--X-X--2---2---2-------|
    A|-2---2---2--X-X--2---2---2-------|
    E|-0---0---0--X-X--0---0---0-------|

BRIDGE
------
(This is INTRO x2)
   E               C#m             B                   G#m
   1   .   2   .   3   .   4   .   1   .   2   .   3   .   4   .
e|-----------------------------------------------------------------|
B|-----------------5-----------5---4-------------------4-------4---|
G|-----1---1-------6-----------6---4-------------------4-------4---| x4
D|-----2---2---4---6-----------6---4-------------------6-------6---|
A|-----2---2-------4-----------4---2-------------------6-------6---|
E|-0---------------------------------------------------4-------4---|

VERSE 2
-------
E                C#m             B                       G#m 
 There's nothing left except the crumbs if you feed her right
E           C#m               B                        G#m
 You ate it all 'cause it was all you could eat at night
E                C#m           B                  G#m
 You're checking in to see how everything's tasting
E          C#m               B                        G#m
 I like it better except for all the time we're wasting
E            C#m      B               F#/B B F#/B B
 My mouth is dry your mouth is watering
E                C#m     B
 The most tender meat is bred for the slaughtering
F#/B x8
 (The slaughtering)

CHORUS 2
--------
    E             A                    C#m           B
But I can't take another bite this has got to stop tonight (stop tonight)
E             A                    C#m           B
I can't take another bite this has got to stop tonight (stop tonight)
E             A                    C#m           B
I can't take another bite this has got to stop tonight (stop tonight)
B                                C#m          A
You might find it strange when I eat away the pain
    B                                   C#m        A
The wheels and the chains are coming off our gravy train
  E      A       E A
Toniii~~~iiiight
  E      A       F#m D
Toniii~~~iiiight

OUTRO
-----
D                     B
 White flags when the war gets waged
             F#m               A
'cause there is no winner only lunch and dinner
D                  B
 In my place every meals a stage
         F#m                 A
Though I decorate sparsely nobody eats parsley
N/C (No chord)
I'm turning my tables on you

Aaaah aaaah aaaaah...
   E               C#m             B                   G#m
   1   .   2   .   3   .   4   .   1   .   2   .   3   .   4   .
e|-----------------------------------------------------------------|
B|-----------------5-----------5---4-------------------4-------4---|
G|-----1---1-------6-----------6---4-------------------4-------4---| x4
D|-----2---2---4---6-----------6---4-------------------6-------6---|
A|-----2---2-------4-----------4---2-------------------6-------6---|
E|-0---------------------------------------------------4-------4---|

   E               C#m             B                   F#/B
   1   .   2   .   3   .   4   .   1   .   2   .   3   .   4   .
e|-----------------------------------------------------------------|
B|-----------------5-----------5---4-----------4---4---4---4---4---|
G|-----1---1-------6-----------6---4-----------4---4---4---4---4---| x2
D|-----2---2---4---6-----------6---4-----------4---4---4---4---4---|
A|-----2---2-------4-----------4---2-----------2---2---2---2---2---|
E|-0-----------------------------------------------2-------2-------|

   F#/B
   1   .   2   .   3   .   4   .
e|---------------------------------|
B|-4---4---4---4---4---4---4-------|
G|-4---4---4---4---4---4---4-------|
D|-4---4---4---4---4---4---4-------|
A|-2---2---2---2---2---2---2-------|
E|-2-------2-------2-------2-------|

KEY
---
/   slide up
\   slide down
~   let ring
b   bend
r   release bend
h   hammer-on
p   pull-off
v   vibrato
X   muted string
()  ghost/optional
Добавлено: 23.07.2015
Вам также может быть интересно:
Другие материалы по этой песне:
  • Аккорды и текст

Страница создана 23.07.2015
http://primanota.ru/evil-cowards/gravy-train-chords.htm
Привет, Гость.
Предлагаем пройти революционный курс по гитаре.
Подарок от PrimaNota.Ru, забирай!