PrimaNota.ru - самый крупный в мире бесплатный архив песенных текстов, аккордов, табулатур и нот


Everything But The Girl - Disenchanted - текст песни, таба, видео

Регистрация Запомнить меня
Войти через:  Facebook Google Twitter Vk Yandex Mail.ru

Everything But The Girl - Disenchanted - текст песни, таба, видео

Печатать
Просмотров: 116
Авторы музыки: Ben Watt
Авторы текста: Tracey Thorn
I listened to the song with headphones and tabbed it this way. This
is from their Amplified Heart album, which I love. EBTG's Language of
Life is very kewl too. Amplify your heart.

 

Everything but the Girl  "Disenchanted"

music, Ben Watt

lyric, Tracey Thorn

 

eadgbe tuning, capo up 1\2 step

 

----0---0---0---|----------------|----0---0---0---|----0-----0-|

----0---0---0---|----3---3---3---|----0---0---0---|----0---3---|

----------------|----2---2---2---|----------------|------------|

--4---4---4---4-|--2---2---2---2-|--4---4---4---4-|--2---2-----|

0---------------|----------------|0---------------|------------|

----------------|3---------------|----------------|4-------2-4-|

Intro.                                           Look at ...

 

--------------|----------------|------------2---|--------------|

----2-2-----2-|----2---2---2---|3-----------3---|----2---2---2-|

----2-2-----2-|----2---2---2---|--2---2---1---1-|----2---2---2-|

--2-----2-----|--2---2---2---2-|----3---2-------|--2---2---2---|

0---------4---|----------------|2---------------|0-------------|

------4-------|2---------------|----------------|--------------|

 

----------------|----0---------|----0---2p0---0-|----0-----0-|------------

2---2-------2---|------------2-|----------------|----0---3---|---2---2---2

------------2---|----2-2-----0-|----2-------2---|------------|---2---2---2

--4---4---3---3-|--2-------2---|0h4---4---------|--2---2-----|-2---2---2--

--------4-------|--------0-----|----------------|------------|0----------4

4---------------|2-------------|----------------|4-------2-4-|-------4----

 

----------------|-----------2-|----3--------|----0-----------|----0---0-

2-----2-2---2---|3----------3-|----2-2-----2|----3-----------|----0-3---

2-----2-2---2---|--2---2---1--|--0-------0--|--2---------2---|--1-------

----2-----2---2-|----3---2----|2------------|0-----4-2h4---4-|2---------

--4-------------|2------------|--------0----|----------------|----------

2---------------|-------------|-------------|----------------|4-----2-4-

 

----------------|----------------|----0---0---0--|----------------

----2---2---2---|----2---2---2---|----3---3---3--|----2---2---2---

----2---2---2---|----0---0---0---|--2---2---2---2|----2---2---2---

--2---2---2---2-|--2---2---2---2-|0--------------|--2---2---2---2-

0---------------|0---------------|---------------|0---------------

----------------|----------------|---------------|----------------

 

----0---2p0-----|----------------|--------------|----4---4---4

----3---------2-|----2---2---2---|2---2-------2-|----2---2---2

--2---2-----2---|----2---2---2---|------------2-|--3---3---3--

0---------------|--2---2---2---2-|--4---4---3---|-------------

----------------|0---------------|--------4-----|-------------

----------------|----------------|4-------------|2------------  

 

----------------|----2-----0-|------------|0-----0-0---0--

------3-3---3---|----3---3---|----2---2-2-|------2-2---2--

--2---2-2---2---|--1---1-----|----2-------|---------------

----4-----4---4-|2-----------|--2---2---2-|----2-----2---2

2---------------|------------|0-----------|--0------------

----------------|--------2-4-|--------4---|2--------------

 

------------2-----3---|------------0-------------|----2---2---2-

3-----------3-------2-|----2-------3-------2---2-|----3---3---3-

--2---2---1-----1-----|----0-----2---4-2h4---4---|--1---1---1---

----4---2-----2-------|--2---2-0-----------------|2-------------

2---------------------|0-------------------------|--------------

----------------------|--------------------------|--------------

 

0---------0---|----------------|----------------|----0---0-0-

--0---0-----0-|----2---2---2---|3-----3-3-------|----0---0-0-

----1---1-----|----4---3---3---|--2---2-2---2---|------------            

--------------|--2---2---2---2-|----4-----4---4-|--3---3-----

4-------------|----------------|2---------------|------------

--------------|2---------------|----------------|3-----------

 

----0---4-p0-----|--------2-------|------0-4-

----0---0----0---|----3-----3---3-|----0-----

---------------2-|----2-------2---|----------

--4---4----------|--2---2---------|--4-------

0----------------|----------------|0---------

-----------------|3---------------|----------

              Outro.
     
Добавлено: 12.07.2013
Другие материалы по этой песне:
  • Аккорды и текст

Страница создана 11.04.2012
http://primanota.ru/everything-but-the-girl/disenchanted-chords.htm
Привет, Гость.
Предлагаем пройти революционный курс по гитаре.
Подарок от PrimaNota.Ru, забирай!