PrimaNota.ru - самый крупный в мире бесплатный архив песенных текстов, аккордов, табулатур и нот


Everything But The Girl - Apron Strings - текст песни, таба, видео

Регистрация Запомнить меня
Войти через:  Facebook Google Twitter Vk Yandex Mail.ru

Everything But The Girl - Apron Strings - текст песни, таба, видео

Печатать
Просмотров: 111
Уроки эстрадного вокала в Санкт-Петербурге



Date: Sun, 24 Jul 2005 19:56:51 +0100
From: rob-brighton 
Subject: e/everything_but_the_girl/apron_strings.tab


Apron Strings by Everything But The Girl                 
          

Written by Watt/Thorn

Appears on Best Of, at least

 

Transcribed by Robert Brighton

 

Played quite slowly. Not sure about all the chords, but it's in the
key

of A.

 

 

First section

 

E-----------------|4-------4-------|5-----5-5-------|2-----------0---|

B-2-----2---2-----|----------3-2---|--5-------5-----|--------3-------|

G---2---------2---|----------------|----------------|----------------|

D-----2---------2-|----------------|----7-------7---|0---------------|

A-0-------0-------|----------------|0-------0-------|----------------|

E-----------------|0-------4-------|----------------|----------------|

 

                                                      Intro

E-----------------|4-------4-2-0---|----------------|4---------------|

B-2-----2-2-------|--0-------------|2-----2-2-------|----------------|

G---2-------2-----|----1-----------|--2-------2-----|----------------|

D-----2-------2---|----------------|----2-------2---|----------------|

A-0-------0-------|----------------|0-------0-------|----------------|

E-----------------|0-------0-------|----------------|0---------------|

 

                                                      Chorus

                                               
    |----------------|

                                                   
|2-----2-2-------|

                                               
    |--2-------2-----|

                                                   
|----2-------2---|

                                                   
|0-------0-------|

                                               
    |----------------|

 

Second section

 

E-----------------|4-------4-2-0---|----------------|--------4-2-0---|

B-3-----3-3-------|--0-------------|2-----2-2-------|2---------------|

G---2-------2-----|----1-----------|--2-------2-----|--2---2---------|

D-0---2---0---2---|----------------|----2-------2---|----2-----------|

A-----------------|----------------|0---------------|----------------|

E-----------------|0-------0-------|--------4-------|2-------0-------|

 

 

E-----------------|4-------4-2-0---|----------------|4---------------|

B-3-----3-3-------|--0-----------3-|3-----3-3-------|----------------|

G---2-------2-----|----1-----------|--2-------2-----|----------------|

D-0---2---0---2---|----------------|0---2---0---2---|----------------|

A-----------------|----------------|----------------|----------------|

E-----------------|0-------0-------|----------------|0---------------|

 

 

Final section

 

E-----------------|4-------4-------|5-----5-5-------|2-----------0---|

B-2-----2-2-------|----------------|--5-------5-----|--------3-------|

G---2-------2-----|----------------|----------------|----------------|

D-----2-------2---|----------------|----7-------7---|0---------------|

A-0-------0-------|----------------|0-------0-------|----------------|

E-----------------|0-------4-------|----------------|----------------|

 

 

E-----------------|4-------4-2-0---|2-------4-2-0---|----0-2-2---0---|

B-2-----2-2-------|--0-----------3-|----------------|3-3-------------|

G---2-------2-----|----1-----------|----------------|----------------|

D-----2-------2---|----------------|0---------------|0---------------|

A-0-------0-------|----------------|----------------|----------------|

E-----------------|0-------0-------|----------------|----------------|

 

 

E-----------------|4-------4-2-0---|5-----5-5-------|5-----5-5-------|

B-2-----2-2-------|--0-------------|--5-------5-----|--5-------5-----|

G---2-------2-----|----1-----------|----7-------7---|----7-------7---|

D-----2-------2---|----------------|5-------5-------|5-------5-------|

A-0-------0-------|----------------|----------------|----------------|

E-----------------|0-------0-------|----------------|----------------|

 

 

E-0---------------|

B-2---------------|

G-2---------------|

D-2---------------|

A-0---------------|

E-----------------|

 

 

Song structure

 

Intro (first section)

Chorus (first section)

Verse (second section)

Chorus

Verse 2

Ending (final section)


Добавлено: 23.01.2014
Другие материалы по этой песне:
  • Аккорды и текст

Страница создана 27.04.2012
http://primanota.ru/everything-but-the-girl/apron-strings-chords.htm
Привет, Гость.
Предлагаем пройти революционный курс по гитаре.
Подарок от PrimaNota.Ru, забирай!