PrimaNota.ru - самый крупный в мире бесплатный архив песенных текстов, аккордов, табулатур и нот


Everyday Jones - What Im Missing - аккорды и текст, таба, видео

Регистрация Запомнить меня
Войти через:  Facebook Google Twitter Vk Yandex Mail.ru

Everyday Jones - What Im Missing - аккорды и текст, таба, видео

Печатать
Просмотров: 110
What Im Missing
Everyday Jones
Artist: Everyday Jones
Song: What I'm Missing
Album: Here I Am

© Everyday Jones
Words and Music by: Jason Green, Alissa Jandt

www.everydayjones.com

Capo: 2
Tablature fingering relative to capo

Intro 
     Ebm     B       F#      C#        
E||--0----|--0----|--0----|--0----||
B||--5----|--0----|--0----|--0----||
G||--6----|--6----|--1----|--8----||
D||--6----|--7----|--2----|--9----||
A||--4----|--7----|--2----|--9----||
E||-------|--5----|--0----|--7----||


Verse
     Ebm     B       F#      C#       
E||--0----|--0----|--0----|--0----||
B||--5----|--0----|--0----|--0----||
G||--6----|--6----|--1----|--8----||
D||--6----|--7----|--2----|--9----||
A||--4----|--7----|--2----|--9----||
E||-------|--5----|--0----|--7----||


Chorus
     F#      Abm     B       C#     
E||--0----|--2----|--0----|--0----||
B||--0----|--2----|--0----|--0----||
G||--1----|--2----|--6----|--8----||
D||--2----|--4----|--7----|--9----||
A||--2----|--4----|--7----|--9----||
E||--0----|--2----|--5----|--7----||


Bridge
     B       C#      A       B         
E||--0----|--0----|--0----|--0----||
B||--0----|--0----|--0----|--0----||
G||--6----|--8----|--4----|--6----||
D||--7----|--9----|--5----|--7----||
A||--7----|--9----|--5----|--7----||
E||--5----|--7----|--3----|--5----||

 
[Verse]
Ebm	    B
Take a breath
	F#
For a moment
		   C#
Here there's no hurry
	  Ebm
Anymore
	    B
Take your time
	     F#
There's no need
		    F#
Don't want you to worry
		Ebm
For anything


	 B
For so long
	  F#
I have waited
	     C#
And some patience
		      Ebm
Won't change a thing
	    B
No one's around
		  F#
Let's make this more
		C#
Than something
	     F#
I want everything





[Chorus]
F#	      Abm	B
I could just run all night
       C#		F#
Nevermind what they say
	   Abm	    B
It's just you and I
     C#			 F#
And we could just hide away
		Abm	   B
Cause I've only got one life
    C#			   F#
I want to feel everything
  		Abm	  B
So baby just hold me tight
    C#			   Ebm	
I know you can save me tonight






[Verse]
Ebm	  B
You and I
	    F#
The more I see
		C#
The more I understand
Ebm	    B
It's not right
	F#
No pretending
		C#	  Ebm
Cause I can't lie to myself
	    B
I've been lost
	  F#	   C#
But I'm ready to find
	   Ebm
What I'm missing in you
	      B
And I can't deny
	    F#		     C#
I'm gonna fly with this feeling
		F#
So I wanna know




[Chorus]
F#	      Abm	B
I could just run all night
       C#		F#
Nevermind what they say
	   Abm	    B
It's just you and I
     C#			 F#
And we could just hide away
		Abm	   B
Cause I've only got one life
    C#			   F#
I want to feel everything
  		Abm	  B
So baby just hold me tight
    C#			   	
I know you can save me tonight





[Bridge]
B
You left your footprints
C#
Inside of me now
       A
For months it seems
     B
And I can't
B
You left your footprints
C#
Inside of me now
      A
For months it seems
     B		  F#
And I can't leave





[Chorus]
F#	      Abm	B
I could just run all night
       C#		F#
Nevermind what they say
	   Abm	    B
It's just you and I
     C#			 F#
And we could just hide away
		Abm	   B
Cause I've only got one life
    C#			   F#
I want to feel everything
  		Abm	  B
So baby just hold me tight
    C#			   Ebm	
I know you can save me tonight
Добавлено: 12.05.2012
Другие материалы по этой песне:
  • Аккорды и текст

Страница создана 25.04.2012
http://primanota.ru/everyday-jones/what-im-missing-chords.htm
Привет, Гость.
Предлагаем пройти революционный курс по гитаре.
Подарок от PrimaNota.Ru, забирай!