PrimaNota.ru - самый крупный в мире бесплатный архив песенных текстов, аккордов, табулатур и нот


Everyday Jones - All You Said - аккорды и текст, видео

Регистрация Запомнить меня
Войти через:  Facebook Google Twitter Vk Yandex Mail.ru

Everyday Jones - All You Said - аккорды и текст, видео

Печатать
Просмотров: 98
All You Said
Everyday Jones
Artist: Everyday Jones
Song: All You Said
Album: Here I Am

© Everyday Jones
Words and Music by: Jason Green, Alissa Jandt

Capo: 5

Tab numbers relative to capo

www.everydayjones.com

Intro for live performances:
     F6add9 F6add9    A#add9 A#add9    F6           F6add9 F6add9   
E||--3------3------|--3------3------|--3----3----|--3------3------||
B||--1------1------|--1------1------|--1----1----|--1------1------||
G||--2------2------|--2------2------|------------|--2------2------||
D||----------------|--3------3------|--2----2----|----------------||
A||----------------|----------------|------------|----------------||
E||----------------|----------------|------------|----------------||

Intro 
     F6add9 G       F6add9 G       F6add9 G       F6add9 G      
E||--3------2----|--3------2----|--3------2----|--3------2----||
B||--1------3----|--1------3----|--1------3----|--1------3----||
G||--2------2----|--2------2----|--2------2----|--2------2----||
D||--0------0----|--0------0----|--0------0----|--0------0----||
A||--------------|--------------|--------------|--------------||
E||--------------|--------------|--------------|--------------||


Verse
     F6add9 G       F6add9 G       F6add9 G       F6add9 G      
E||--3------2----|--3------2----|--3------2----|--3------2----||
B||--1------3----|--1------3----|--1------3----|--1------3----||
G||--2------2----|--2------2----|--2------2----|--2------2----||
D||--0------0----|--0------0----|--0------0----|--0------0----||
A||--------------|--------------|--------------|--------------||
E||--------------|--------------|--------------|--------------||


Chorus
     F       C5      Dm7     Bb      F       C5      Dm7     Bb      F     
E||-------|--3----|--3----|--1----|-------|--3----|--3----|--1----|-------|
B||--1----|--3----|--1----|--1----|--1----|--3----|--1----|--1----|--1----|
G||--0----|--0----|--2----|--2----|--0----|--0----|--2----|--2----|--0----|
D||--2----|--0----|--2----|--3----|--2----|--0----|--2----|--3----|--2----|
A||--3----|--x----|-------|--3----|--3----|--x----|-------|--3----|--3----|
E||--3----|--3----|-------|--1----|--3----|--3----|-------|--1----|--3----|


  C5      Dm7     Bb      F       C5      Bbm7   
--3----|--3----|--1----|-------|--3----|--0----||
--3----|--1----|--1----|--1----|--3----|--1----||
--0----|--2----|--2----|--0----|--0----|--2----||
--0----|--2----|--3----|--2----|--0----|--3----||
--x----|-------|--3----|--3----|--x----|--3----||
--3----|-------|--1----|--3----|--3----|-------||


Bridge
     C       F       C       Dm7    
E||--0----|--0----|--0----|--3----||
B||--0----|--1----|--0----|--1----||
G||--4----|--0----|--4----|--2----||
D||--5----|--2----|--5----|--2----||
A||--5----|--3----|--5----|-------||
E||--3----|--3----|--3----|-------||


[Verse]
F6add9			G
All my insecurities you know

F6add9			    G
How I still make time for these

F6add9				G
Some days they bring me down

F6add9				G
It's worse now you're not around

F6add9			  G
I can't seem to find my way


F6add9			G
My direction keeps on fading

F6add9				  G
I never know the right things to say

F6add9 		     G
Some things never change

F6add9		     G
And I still lay awake

F6add9                    G
Hoping I'll see better days


[Chorus]
F	  C5
I can't stop

	       Dm7          Bb
Cause I hear voices in my head

F		C5	    Dm7	     Bb
They keep repeating every word you said

F		C5
And I can't stop

	     Dm7	Bb
All these voices in my head

F		    C5	     Dm7 - Bb
Because they won't let me forget
All you said


[Verse]
F6add9				G
It sure is quiet now you're gone

F6add9				  G
And the silence does not keep me warm

F6add9			   G
I wonder if you feel the same

F6add9				G
And when are you coming around again

F6add9				G
Because I don't want to be alone



[Chorus]
F	  C5
I can't stop

	       Dm7          Bb
Cause I hear voices in my head

F		C5	    Dm7	     Bb
They keep repeating every word you said

F		C5
And I can't stop

	     Dm7	Bb
All these voices in my head

F		    C5	     Dm7 - Bb
Because they won't let me forget
All you said

C       F       C       Dm7  
[Bridge]
C	  F
I can't eat
     
     C		Dm7
And I can't sleep

C		  F		C - Dm7
You're so much better on your own

    C		F
And I can't breathe

C		   Dm7
Because you don't need me

     C		F	   C - Dm7
And you can't wait to be alone
And now you're gone



[Chorus]
F	  C5
I can't stop

	       Dm7          Bb
Cause I hear voices in my head

F		C5	    Dm7	     Bb
They keep repeating every word you said

F		C5
And I can't stop

	     Dm7	Bb
All these voices in my head

F		    C5	     Dm7 - Bb
Because they won't let me forget
All you said
Добавлено: 20.07.2012
Другие материалы по этой песне:
  • Аккорды и текст

Страница создана 20.07.2012
http://primanota.ru/everyday-jones/all-you-said-chords.htm
Привет, Гость.
Предлагаем пройти революционный курс по гитаре.
Подарок от PrimaNota.Ru, забирай!