PrimaNota.ru - самый крупный в мире бесплатный архив песенных текстов, аккордов, табулатур и нот


Every Time I Die - White Smoke - таба, бас-таба, видео

Регистрация Запомнить меня
Войти через:  Facebook Google Twitter Vk Yandex Mail.ru

Every Time I Die - White Smoke - таба, бас-таба, видео

Печатать
Просмотров: 203
Уроки эстрадного вокала в Санкт-Петербурге
----------------------------------
  White Smoke - Every Time I Die
----------------------------------
Tabbed by: millarso (Jake Miller)
E-mail: millarso2.0@gmail.com

Tuning: Drop D

Guitar 1: Left Stereo
Guitar 2: Right Stereo

INTRO
Guitar 2 (play parentheses second time)
E|-------------------------------------------------|
B|-------------------------------------------------|
G|---------------------------------------------(2)-|
D|---------------------------------------------(2)-|x2
A|-----2---2/5----------------2---2/5-----------0--|
D|-0-1---4-----4-4-4-3-3--0-1---4-----4-4-4p3p0----|

Both Guitars
E|--------------------------------|
B|--------------------------------|
G|--------------------------------|
D|-0-12-11-0-11-9-0-9-8-0-8/11-11-|
A|-0-12-11-0-11-9-0-9-8-0-8/11-11-|
D|-0-12-11-0-11-9-0-9-8-0-8/11-11-|

SECTION 1
Both Guitars (play parentheses last time)
E|-------------------------------------------------|
B|-------------------------------------------------|
G|---------------------------------------------(2)-|
D|---------------------------------------------(2)-|x4
A|-----2---2/5----------------2---2/5-----------0--|
D|-0-1---4-----4-4-4-3-3--0-1---4-----4-4-4p3p0----|

SECTION 2
E|--------------------------------------------------------------------|
B|--------------------------------------------------------------------|
G|--------------------------------------------------------------------|
D|-0-12-11-0-11-9-0-9-8-0-8/11-11--0-12-11-0-11-9-0-9-8-0-8-0-8/11-11-|
A|-0-12-11-0-11-9-0-9-8-0-8/11-11--0-12-11-0-11-9-0-9-8-0-8-0-8/11-11-|
D|-0-12-11-0-11-9-0-9-8-0-8/11-11--0-12-11-0-11-9-0-9-8-0-8-0-8/11-11-|

REPEAT SECTION 1 (only twice)

REPEAT SECTION 2 x2

TRANSITION
Guitar 1
E|--------------------------------------------------------------|
B|------------------------------------------------------x-x-x-x-|
G|------------------------------------------------------x-x-x-x-|
D|------------------------------------------------------x-x-x-x-|
A|------------------------------------------------------x-x-x-x-|
D|-0-11--0-0--0-11--0-0--0-0-0-11-0-11--0-0--0-11--0-0--x-x-x-x-|

SECTION 3
Both Guitars
E|--------------------------------|  |----------------------------|
B|--------------------------------|  |----------------------------|
G|--------------------------------|  |----------------------------|
D|--------------------------------|x3|-----------------------0--0-|
A|--------------------------------|  |-----------------------0--0-|
D|-0-11--0-0--0-11--0-0--0-0-0-11-|  |-0-11--0-0--0-11--0-0--0--0-|

SECTION 4
Both Guitars
E|-------------------------------------------------------------|
B|-------------------------------------------------------------|
G|---11---------11-------------11-11---------------11----------|
D|---10---------10-------------10-10---------------10----------|x2
A|-0--9--0-0--0--9--0-0--0-0-0--9--9-0-0--0--0-0-0--9-0--0--00-|
D|-0-----0-0--0-----0-0--0-0-0-------0-0--0--0-0-0----0--0--00-|
   .     . .  .     . .  . . .       . .  .  . . .    .  .  ..

SECTION 5
Guitar 1
E|---------------------------------------------------------|
B|-6-------------6-------------6-------------6-------------|
G|---4-6-0-6-4-0---4-6-0-6-4-0---4-6-0-6-4-0---4-6-0-6-4-0-|
D|---------------------------------------------------------|
A|---------------------------------------------------------|
D|---------------------------------------------------------|
|| . . . . . . . . . . . . . . . . . . . . . . . . . . . .
Guitar 2
E|---------------------------------------------------------|
B|-----------------------------6-------------6-------------|
G|-------------------------------4-6-0-6-4-0---4-6-0-6-4-0-|
D|---------------------------------------------------------|
A|---------------------------------------------------------|
D|---------------------------------------------------------|

Guitar 1 (slowly let off palm muting)
E|-0-------------|  |-0-----------------|
B|-6-0-0-0-0-0-0-|  |-6-0-0-0-0-0-0-0-0-|
G|---4-6-0-6-4-0-|  |---4-6-0-6-4-0-4-0-|
D|---------------|x7|-------------------|
A|---------------|  |-------------------|
D|---------------|  |-------------------|
|| . . . . . . .
Guitar 2
E|---------------|  |-------------------|
B|-6-------------|  |-6-----------------|
G|---4-6-0-6-4-0-|  |---4-6-0-6-4-0-4-0-|
D|---------------|x7|-------------------|
A|---------------|  |-------------------|
D|---------------|  |-------------------|

TIP: There are some natural harmonics on a separate track, but I can't
make them out entirely. Maybe in a later update.

REPEAT SECTION 1 and add this to the end...
E|---------|
B|---------|
G|-(2)-----|
D|-(2)-----|
A|-(0)-----|
D|------7\-|

SECTION 6
Both Guitars
E|--------------------------|
B|--------------------------|
G|--------------------------|
D|------------------8/11-11-|
A|------------------8/11-11-|
D|-(long-bass-line)-8/11-11-|

REPEAT SECTION 4 (slower tempo)

SECTION 7
Both Guitars
E|--------------------------------------------------------|
B|--------------------------------------------------------|
G|--------------------------------------------------------|
D|---4---------4-------------4-4---------------4----------|x2
A|-0-3--0-0--0-3--0-0--0-0-0-3-3-0-0--0--0-0-0-3-0--0--00-|
D|-0-4--0-0--0-4--0-0--0-0-0-4-4-0-0--0--0-0-0-4-0--0--00-|
   .    . .  .    . .  . . .     . .  .  . . .   .  .  ..

Section 5 is the only part where I am a little "meh" on a few notes, but
I'm pretty confident about the rest. Enjoy.
Please rate & comment.
Thanks,
millarso

************************************

| .   palm mute
| /   slide up
| \   slide down
| h   hammer-on
| p   pull-off
| ~   vibrato
| +   harmonic
| x   Mute note
| b   Bend
| pb  Pre-bend
| br  Bend release
| pbr Pre-bend release
| brb Bend release bend

************************************
Добавлено: 24.07.2015
Другие материалы по этой песне:

Страница создана 18.04.2012
http://primanota.ru/every-time-i-die/white-smoke-chords.htm
Привет, Гость.
Предлагаем пройти революционный курс по гитаре.
Подарок от PrimaNota.Ru, забирай!