PrimaNota.ru - самый крупный в мире бесплатный архив песенных текстов, аккордов, табулатур и нот


Every Time I Die - Werewolf - таба, видео

Регистрация Запомнить меня
Войти через:  Facebook Google Twitter Vk Yandex Mail.ru

Every Time I Die - Werewolf - таба, видео

Печатать
Просмотров: 134
I just figured out the correct way to play this song, I'm still a bit fuzzy on the solo, 
it will be up soon.

Verse:

                                      x4
E|----------------------------0-------|
B|------------------------------0-----|
G|--------------------------------0---|
D|----------------------------------0-|
A|------------------------------------|
D|5-0123215-0123215-5-m000000---------|

On 5th time play this~


E|---------------------------------------------|
B|---------------------------------------------|
G|---------------------------------------------|
D|---------------------------------------------|
A|4-------4--------4--------4--------8-8--8-8--|
D|--012321--012321---012321---012321-8-8--8-8--|

Pre Chorus:

                 x4
E|-----------------|
B|-----------------|
G|-----------------|
D|-----------------|
A|8----------------|
D|8-m88888888888888|

Chorus: Let Ring

                    x3           On 4th Time, Play This.
E|---------------0-------||---------------------------|
B|-----------------0-----||---------------------------|
G|-------------------0---||---------------------------|
D|---------------------0-||---------------------------|
A|5----2----1------------||5----2----1----------------|
D|5----2----1------------||5----2----1-m11111111111111|
                                   Repeat From 1 Chord x2

Then Play This


E|----------------------|
B|----------------------|
G|----------------------|
D|----------------------|
A|----------------------|
D|12--------13-8--13-8--|

Then Return To Beginning, except on this part you play only first note. Then Play This

Second Verse: Play whole thing a lot until the string change. I DON'T KNOW THE SOLO!

              x3
E|-------------||-------------|
B|-------------||-------------|
G|-------------||-------------|
D|---------2---||520-2--------|
A|522222025-52-||-----52-5202-|
D|-------------||-------------|

Then Play It Like This!

              x3
E|-------------||30--3--------|
B|-------------||--3--30-30-0-|
G|---------2---||----------2--|
D|522222025-52-||-------------|
A|-------------||-------------|
D|-------------||-------------|

Outro:


E|----------------------|
B|----------------------|
G|----------------------|
D|----------------------|
A|m000000000000-7----9-9|
D|--------------7----9-9|
Добавлено: 19.03.2012
Другие материалы по этой песне:

Страница создана 07.03.2012
http://primanota.ru/every-time-i-die/werewolf-chords.htm
Привет, Гость.
Предлагаем пройти революционный курс по гитаре.
Подарок от PrimaNota.Ru, забирай!