PrimaNota.ru - самый крупный в мире бесплатный архив песенных текстов, аккордов, табулатур и нот


Every Time I Die - Underwater Bimbos From Outer Space - таба, видео

Регистрация Запомнить меня
Войти через:  Facebook Google Twitter Vk Yandex Mail.ru

Every Time I Die - Underwater Bimbos From Outer Space - таба, видео

Печатать
Просмотров: 132
Уроки эстрадного вокала в Санкт-Петербурге
These are tabs to how I play it in my cover video:
http://www.youtube.com/watch?v=WESxw5naa60

|----------------------------------------------------------------------------------------|
|----------------------------------------------------------------------------------------|
|----------------------------------------------------------------------------------------|
|----------------------------------------------------------------------------------------|
|----------------------------------------------------------------------------------------|
|-13-0-15-14-0-15-14-13-0-14-13-0-15-14-13-0-13-14-15-0-14-13-0-15-0-14-13-0-15-14-13----|



|-----------------------------------------------|
|-----------------------------------------------|
|-----------------------------------------------|
|-----------------------------------------------|
|-----------------------------------------------|
|-13-0-15-14-0-15-14-13-0-14-13-0-15-14-13-0----|



||--------------------------------------------------------------------||
||o------------------------------------------------------------------o||
||--------------------------------------------------------------------||
||--------------------------------------------------------------------||
||o------------------------------------------------------------------o||
||--1-0-3-2-0-3-2-1--0-2-1-0-3-2-1-0--1-2-3-0-2-1-0-3--0-2-1-0-3-2-1--||



|-----------------------------------------------------------------------------------------|
|-----------------------------------------------------------------------------------------|
|-----------------------------------------------------------------------------------------|
|-----------------------------------------------------------------------------------------|
|-----------------------------------------------------------------------------------------|
|-13-0-15-14-0-15-14-13--0-14-13-0-15-14-13-0--13-14-15-0-14-13-0-15--0-14-13-0-15-14-13--|


          3x
||--------||---------------------|
||o------o||---------------------|
||--------||---------------------|
||-----3--||----------6----------|
||o-6--3-o||---------------------|
||-----3--||--0-6-7-8---8-7-6----|



||---------------------------------------------------||----|
||o-------------------------------------------------o||----|
||---------------------------------------------------||----|
||----11-15---15-11---11-15-----------------6--------||----|
||o-0-11-15-0-15-11-0-11-15-0-18--------------------o||----|
||--0-11-15-0-15-11-0-11-15-0----15-0-6-7-8---8-7-6--||----|



||--------------------------------------------------------------------------||
||o------------------------------------------------------------------------o||
||--------------------------------------------------------------------------||
||--------------------------------------------------------------------------||
||o-02-4-0-8-0-2-4-7-0-2-4-0-8-0-7-0--2-4-0-8-0-2-4-7-0-2-4-0-8-0-2-4-7-9--o||
||--02-4-0-----2-4-7-0-2-4-0-----7-0--2-4-0-----2-4-7-0-2-4-0-----2-4-7-9---||



|------------------------------------|
|------------------------------------|
|------------------------------------|
|------------------------------------|
|---------1-1-3-2-----2-1-0-3--------|
|-0-0-0-0-1-1-3-2-0-0-2-1-0-3-0-0----|



||-------------------------------------------------------------------------||
||o-----------------------------------------------------------------------o||
||-------------------------------------------------------------------------||
||----------------------------------------------------------6--------------||
||o---------1-1-3-2------2-1-0-3------2-1------1-1-3-2------6-8-7-6-------o||
||--0-0-0-0-1-1-3-2--0-0-2-1-0-3--0-0-2-1--0-0-1-1-3-2--0-0---8-7-6-0-0----||



||---------------------------------------------------||
||o-------------------------------------------------o||
||---------------------------------------------------||
||----11-15---15-11---11-15-----------------6--------||
||o-0-11-15-0-15-11-0-11-15-0-18--------------------o||
||--0-11-15-0-15-11-0-11-15-0----15-0-6-7-8---8-7-6--||


                                                            4x
|--------------------------------------------------------5--||
|--------------------------------------------------------5-o||
|--------------------------------------------------------5--||
|-----------------------------------------------------------||
|----------------------------------------------------------o||
|-0-0-0-0-1-1-3-2--0-0-2-1-0-3--0-0-2-1--0-0-1-1-3-2-0-0----||
Добавлено: 21.06.2013
Другие материалы по этой песне:

Страница создана 21.06.2013
http://primanota.ru/every-time-i-die/underwater-bimbos-from-outer-space-chords.htm
Привет, Гость.
Предлагаем пройти революционный курс по гитаре.
Подарок от PrimaNota.Ru, забирай!