PrimaNota.ru - самый крупный в мире бесплатный архив песенных текстов, аккордов, табулатур и нот


Every Time I Die - Touch Yourself - таба, видео

Регистрация Запомнить меня
Войти через:  Facebook Google Twitter Vk Yandex Mail.ru

Every Time I Die - Touch Yourself - таба, видео

Печатать
Просмотров: 94
-----------------------------------------------------------------
Touch Yourself - Every Time I Die
-----------------------------------------------------------------
Tabbed by: Jake Miller (millarso)
Email: millarso2.0@gmail.com
Tuning: Drop D

Section 1
Both Guitars
e|-----------------------------------------|
B|-----------------------------------------|
G|-----------------------------------------|
D|-5---2---------------5---2---------------| x2
A|-5---2---5-3-5-6-5-3-5---2---5-3-5-6-9-6-|
D|-5---2---5-3-5-6-5-3-5---2---5-3-5-6-9-6-|

Guitar 1
e|-------10---------------13---13---13---13--|
B|-12~------12-10/12~-----16b--16b--16b--16b-|
G|-------------------------------------------|
D|-------------------------------------------|
A|-------------------------------------------|
D|-------------------------------------------|

Guitar 2
e|-------------------------------------------|
B|-------------------------------------------|
G|-------------------------------------------|
D|-9~------------(9~)-----////////////-------|
A|-9~------------(9~)-----/pick slide/-------|
D|-9~------------(9~)-----////////////-------|

Section 2 (x2)
Both Guitars
e|---------------------------------------------|
B|---------------------------------------------|
G|---------------------------------------------|
D|---------------------------------------------|
A|-9-6-5-3-5-6-5-3-5---9-6-5-3-5-6-6-6-2-2-2---|
D|-9-6-5-3-5-6-5-3-5---9-6-5-3-5-6-6-6-2-2-2---|
                                                      2nd Ending
e|---------------------------------------------|-------------------------|
B|---------------------------------------------|-------------------------|
G|---------------------------------------------|-------------------------|
D|---------------------------------------------|-------------------------|
A|-9-6-5-3-5-6-5-3-5---5-3-5-6-5-3-5-3-5-6-9-6-|-5-3-5-6-5-3-6-6-6-2-2-2-|
D|-9-6-5-3-5-6-5-3-5---5-3-5-6-5-3-5-3-5-6-9-6-|-5-3-5-6-5-3-6-6-6-2-2-2-|

Section 3 (x2)

Guitar 1
e|---------------------------------------------------------------|
B|---------------------------------------------------------------|
G|---------------------------------------------------------------|
D|-----------------------------------------------------5-------7-|
A|-----222---------------------------------------0h3h5---0h5h7---|
D|-000-----333-222-5-5-5-2-2-2---000-222-333-555-----------------|

Guitar 2
e|---------------------------------------------------------------|
B|---------------------------------------------------------------|
G|---------------------------------------------------------------|
D|---------------------------------------------------------------|
A|-----222---------------------------------------------3-------5-|
D|-000-----333-222-5-5-5-2-2-2---000-222-333-555-0h3h5---0h5h7---|

Both Guitars
                                                               2nd Ending
e|-----------------------------------------------------------|-------------|
B|-----------------------------------------------------------|-------------|
G|-----------------------------------------------------------|-------------|
D|-----------------------------------------------------------|-------------|
A|-----222-----------------------------3-------5-5-3-5-6-5-3-|-5-3-5-6-9-6-|
D|-000-----333-222-5-5-5-2-2-2---0h3h5---0h5h7---5-3-5-6-5-3-|-5-3-5-6-9-6-|

Section 4

Both Guitars
e|-----------------------------|
B|-----------------------------|
G|-----------------------------|
D|-----------------------------| x2
A|-5-3--5-6-5--3-5-3--5-6-9--6-|
D|-5-3--5-6-5--3-5-3--5-6-9--6-|

"God saves every third person..."
e|------------------------------------|
B|------------------------------------|
G|------------------------------------|
D|------------------------------------|x2
A|-(pause/feedback)-------6-6-6-2-2-2-|
D|------------------------6-6-6-2-2-2-|

Section 5 (similar to Section 2) (x2)

Both Guitars
e|---------------------------------------------|
B|---------------------------------------------|
G|---------------------------------------------|
D|---------------------------------------------|
A|-9-6-5-3-5-6-5-3-5---9-6-5-3-5-6-6-6-2-2-2---|
D|-9-6-5-3-5-6-5-3-5---9-6-5-3-5-6-6-6-2-2-2---|

                                                       2nd Ending
e|---------------------------------------------|-------------------------|
B|---------------------------------------------|-------------------------|
G|---------------------------------------------|-------------------------|
D|---------------------------------------------|-------------------------|
A|-9-6-5-3-5-6-5-3-5---5-3-5-6-5-3-5-3-5-6-9-6-|-5-3-5-6-5-3-5-3-5-6-9-6-|
D|-9-6-5-3-5-6-5-3-5---5-3-5-6-5-3-5-3-5-6-9-6-|-5-3-5-6-5-3-5-3-5-6-9-6-|

Section 6 (similar to Section 1)

Both Guitars
e|------------------------------------------|
B|------------------------------------------|
G|------------------------------------------|
D|-5---2---------------5---2----------------| x2
A|-5---2---5-3-5-6-5-3-5---2---5-3-5-6-9-6--|
D|-5---2---5-3-5-6-5-3-5---2---5-3-5-6-9-6--|

End with...
e|-----------|
B|-----------|
G|-----------|
D|-9\--------|
A|-9\--------|
D|-9\--------|

Send me some feedback. I'm trying to tab out this whole album for your viewing pleasure. Thanks,
millarso
Добавлено: 17.08.2013
Другие материалы по этой песне:

Страница создана 17.08.2013
http://primanota.ru/every-time-i-die/touch-yourself-chords.htm
Привет, Гость.
Предлагаем пройти революционный курс по гитаре.
Подарок от PrimaNota.Ru, забирай!