PrimaNota.ru - самый крупный в мире бесплатный архив песенных текстов, аккордов, табулатур и нот


Every Time I Die - The Marvelous Slut - таба, бас-таба, видео

Регистрация Запомнить меня
Войти через:  Facebook Google Twitter Vk Yandex Mail.ru

Every Time I Die - The Marvelous Slut - таба, бас-таба, видео

Печатать
Просмотров: 117
Every Time I Die
                    Transcribed by Jacob Gamboa (Gamboa900)


Left speaker Guitar (Andy?)


NH = Natural Harmonics
       NH  NH  NH  NH  NH  NH  NH  NH  NH  NH  NH  NH  NH  NH  NH  NH 
       S   S   S   S   S   S   S   S   S   S   S   S   S   S   S   S  
E||------------------------------------------------------------------|
B||------------------------------------------------------------------|
G||------------------------------------------------------------------|
D||------------------------------------------------------------------|
A||----7---7---7---7---7---7---7---7---7---7---7---7---7---7---7---7-|
D||------------------------------------------------------------------|


    NH  NH  NH  NH  NH  NH  NH  NH  NH  NH  NH  NH         
    S   S   S   S   S   S   S   S   S   S   S   S S S S S  
----------------------------------------------------------|
----------------------------------------------------------|
----------------------------------------------------------|
--------------------------------------------------6-6-6-0-|
----7---7---7---7---7---7---7---7---7---7---7---7-6-6-6-0-|
--------------------------------------------------6-6-6-0-|


       NH  NH  NH  NH  NH  NH  NH  NH  NH  NH         
  E    S   S   S   S   S   S   S   S   S   S S S S S  
-----------------------------------------------------|
-----------------------------------------------------|
-----------------------------------------------------|
--L----7---7---7---7---7---7---7---7---7---7-6-6-6-0-|
--L------------------------------------------6-6-6-0-|
--L------------------------------------------6-6-6-0-|


       NH  NH  NH  NH  NH  NH  NH  NH  NH  NH         
  E    S   S   S   S   S   S   S   S   S   S S S S S  
-----------------------------------------------------|
-----------------------------------------------------|
-----------------------------------------------------|
--L----7---7---7---7---7---7---7---7---7---7-6-6-6-0-|
--L------------------------------------------6-6-6-0-|
--L------------------------------------------6-6-6-0-|


       NH  NH  NH  NH  NH  NH  NH  NH  NH  NH         
  E    S   S   S   S   S   S   S   S   S   S S S S S  
-----------------------------------------------------|
-----------------------------------------------------|
-----------------------------------------------------|
--L----7---7---7---7---7---7---7---7---7---7-6-6-6-0-|
--L------------------------------------------6-6-6-0-|
--L------------------------------------------6-6-6-0-|


       NH  NH  NH  NH  NH  NH  NH  NH  NH  NH         
  E    S   S   S   S   S   S   S   S   S   S S S S S  
-----------------------------------------------------|
-----------------------------------------------------|
-----------------------------------------------------|
--L----7---7---7---7---7---7---7---7---7---7-6-6-6-0-|
--L------------------------------------------6-6-6-0-|
--L------------------------------------------6-6-6-0-|


  E  S  S S  S S  S S  S S  S S S S S    E  S  S S  S S  S S  S S  S S S S S  
--------------------------------------|--------------------------------------|
--------------------------------------|--------------------------------------|
--------------------------------------|--------------------------------------|
--L---------------------------6-6-6-0-|--L---------------------------6-6-6-0-|
--L-------5p-3------5p-3------6-6-6-0-|--L-------5p-3------5p-3------6-6-6-0-|
--L--3p-0------3p-0------3p-0-6-6-6-0-|--L--3p-0------3p-0------3p-0-6-6-6-0-|


  E  S  S S  S S  S S  S S  S S S S S    E  S  S S  S S  S S  S S  S S S S S  
--------------------------------------|--------------------------------------|
--------------------------------------|--------------------------------------|
--------------------------------------|--------------------------------------|
--L---------------------------6-6-6-0-|--L---------------------------8-8-8-2-|
--L-------5p-3------5p-3------6-6-6-0-|--L-------5p-3------5p-3------8-8-8-2-|
--L--3p-0------3p-0------3p-0-6-6-6-0-|--L--3p-0------3p-0------3p-0-8-8-8-2-|


  S  S S  S S  S E  S  S E  S S S S    S  S S  S S  S E  S  S E  S S S S  
-----------------0-------0----------|-----------------0-------0----------|
-----------------0-------0----------|-----------------0-------0----------|
------------------------------------|------------------------------------|
--Lp-0-2p-0-2p-0----2p-0----8-8-8-2-|--Lp-0-2p-0-2p-0----2p-0----8-8-8-2-|
--Lp-0-2p-0-2p-0----2p-0----8-8-8-2-|--Lp-0-2p-0-2p-0----2p-0----8-8-8-2-|
--Lp-0-2p-0-2p-0----2p-0----8-8-8-2-|--Lp-0-2p-0-2p-0----2p-0----8-8-8-2-|


  S  S S  S S  S E  S  S E  S S S S    S  S S  S S  S E  S  S E  S S S S  
-----------------0-------0----------|-----------------0-------0----------|
-----------------0-------0----------|-----------------0-------0----------|
------------------------------------|------------------------------------|
--Lp-0-2p-0-2p-0----2p-0----8-8-8-2-|--Lp-0-2p-0-2p-0----2p-0----8-8-8-0-|
--Lp-0-2p-0-2p-0----2p-0----8-8-8-2-|--Lp-0-2p-0-2p-0----2p-0----8-8-8-0-|
--Lp-0-2p-0-2p-0----2p-0----8-8-8-2-|--Lp-0-2p-0-2p-0----2p-0----8-8-8-0-|


  E  S  S S  S S  S S  S S  S S S S S    E  S  S S  S S  S S  S S  S S S S S  
--------------------------------------|--------------------------------------|
--------------------------------------|--------------------------------------|
--------------------------------------|--------------------------------------|
--L---------------------------6-6-6-0-|--L---------------------------6-6-6-0-|
--L-------5p-3------5p-3------6-6-6-0-|--L-------5p-3------5p-3------6-6-6-0-|
--L--3p-0------3p-0------3p-0-6-6-6-0-|--L--3p-0------3p-0------3p-0-6-6-6-0-|


  E  S  S S  S S  S S  S S  S S S S S    E  S  S S  S S  S S  S S  S S S S S  
--------------------------------------|--------------------------------------|
--------------------------------------|--------------------------------------|
--------------------------------------|--------------------------------------|
--L---------------------------6-6-6-0-|--L---------------------------8-8-8-2-|
--L-------5p-3------5p-3------6-6-6-0-|--L-------5p-3------5p-3------8-8-8-2-|
--L--3p-0------3p-0------3p-0-6-6-6-0-|--L--3p-0------3p-0------3p-0-8-8-8-2-|


  S  S S  S S  S E  S  S E  S S S S    S  S S  S S  S E  S  S E  S S S S  
-----------------0-------0----------|-----------------0-------0----------|
-----------------0-------0----------|-----------------0-------0----------|
------------------------------------|------------------------------------|
--Lp-0-2p-0-2p-0----2p-0----8-8-8-2-|--Lp-0-2p-0-2p-0----2p-0----8-8-8-2-|
--Lp-0-2p-0-2p-0----2p-0----8-8-8-2-|--Lp-0-2p-0-2p-0----2p-0----8-8-8-2-|
--Lp-0-2p-0-2p-0----2p-0----8-8-8-2-|--Lp-0-2p-0-2p-0----2p-0----8-8-8-2-|


  S  S S  S S  S E  S  S E  S S S S    S  S S  S S  S E  S  S E  E  E   
-----------------0-------0----------|-----------------0-------0--------|
-----------------0-------0----------|-----------------0-------0--------|
------------------------------------|----------------------------------|
--Lp-0-2p-0-2p-0----2p-0----8-8-8-2-|--Lp-0-2p-0-2p-0----2p-0----6--4--|
--Lp-0-2p-0-2p-0----2p-0----8-8-8-2-|--Lp-0-2p-0-2p-0----2p-0----6--4--|
--Lp-0-2p-0-2p-0----2p-0----8-8-8-2-|--Lp-0-2p-0-2p-0----2p-0----6--4--|


  E  E  E  E  E  E  E  E     E  E  E  E  E  E  E  E   
--------------------------|--------------------------|
--0--------0--------------|--------0--------0--------|
--3--------3--------------|--------3--------3--------|
-----5--4-----6--4--5--0--|--6--4-----5--4-----6--4--|
-----5--4-----6--4--5--0--|--6--4-----5--4-----6--4--|
-----5--4-----6--4--5--0--|--6--4-----5--4-----6--4--|


  E  E  E  E  E  E  E  E     E  E  E  E  E  E  E  E   
--------------------------|--------------------------|
--------------0--------0--|--------------------0-----|
--------------3--------3--|--------------------3-----|
--5--0--6--4-----5--4-----|--6--4--5--0--6--4-----5--|
--5--0--6--4-----5--4-----|--6--4--5--0--6--4-----5--|
--5--0--6--4-----5--4-----|--6--4--5--0--6--4-----5--|


  E  E  E  E  E  E  E  E     H.           S S S S    E  E  H        S S S S  
--------------------------|-----------------------|-------------------------|
-----0--------------------|--0--------------------|-------------------------|
-----3--------------------|--3--------------------|-------------------------|
--4-----6--4--5-----0-----|---------------8-8-8-2-|--L--------------8-8-8-2-|
--4-----6--4--5-----0-----|---------------8-8-8-2-|--L--------------8-8-8-2-|
--4-----6--4--5-----0-----|---------------8-8-8-2-|--L--------------8-8-8-2-|


  E  E  H        S S S S    E  E  H        S S S S    E  E  H        E  E   
-------------------------|-------------------------|-----------------------|
-------------------------|-------------------------|-----------------------|
-------------------------|-------------------------|-----------------------|
--L--------------8-8-8-2-|--L--------------8-8-8-2-|--L--------------6--4--|
--L--------------8-8-8-2-|--L--------------8-8-8-2-|--L--------------6--4--|
--L--------------8-8-8-2-|--L--------------8-8-8-2-|--L--------------6--4--|


  E  E  E  E  E  E  E  E     E  E  E  E  E  E  E  E   
--------------------------|--------------------------|
--0--------0--------------|--------0--------0--------|
--3--------3--------------|--------3--------3--------|
-----5--4-----6--4--5--0--|--6--4-----5--4-----6--4--|
-----5--4-----6--4--5--0--|--6--4-----5--4-----6--4--|
-----5--4-----6--4--5--0--|--6--4-----5--4-----6--4--|


  E  E  E  E  E  E  E  E     E  E  E  E  E  E  E  E   
--------------------------|--------------------------|
--------------0--------0--|--------------------0-----|
--------------3--------3--|--------------------3-----|
--5--0--6--4-----5--4-----|--6--4--5--0--6--4-----5--|
--5--0--6--4-----5--4-----|--6--4--5--0--6--4-----5--|
--5--0--6--4-----5--4-----|--6--4--5--0--6--4-----5--|


  E  E  E  E  E  E  E  E     W                   W                 
--------------------------|-------------------|-------------------|
-----0--------------------|--0----------------|--0----------------|
-----3--------------------|--3----------------|--3----------------|
--4-----6--4--5-----0-----|-------------------|-------------------|
--4-----6--4--5-----0-----|-------------------|-------------------|
--4-----6--4--5-----0-----|-------------------|-------------------|


  W                   H.           S S S S  
-------------------|-----------------------|
--0----------------|--0--------------------|
--3----------------|--3--------------------|
-------------------|---------------6-6-6-0-|
-------------------|---------------6-6-6-0-|
-------------------|---------------6-6-6-0-|


  E  S  S S  S S  S S  S S  S S S S S    E  S  S S  S S  S S  S S  S S S S S  
--------------------------------------|--------------------------------------|
--------------------------------------|--------------------------------------|
--------------------------------------|--------------------------------------|
--L---------------------------6-6-6-0-|--L---------------------------6-6-6-0-|
--L-------5p-3------5p-3------6-6-6-0-|--L-------5p-3------5p-3------6-6-6-0-|
--L--3p-0------3p-0------3p-0-6-6-6-0-|--L--3p-0------3p-0------3p-0-6-6-6-0-|


  E  S  S S  S S  S S  S S  S S S S S    E  S  S S  S S  S S  S S  S S S S S  
--------------------------------------|--------------------------------------|
--------------------------------------|--------------------------------------|
--------------------------------------|--------------------------------------|
--L---------------------------6-6-6-0-|--L---------------------------8-8-8-2-|
--L-------5p-3------5p-3------6-6-6-0-|--L-------5p-3------5p-3------8-8-8-2-|
--L--3p-0------3p-0------3p-0-6-6-6-0-|--L--3p-0------3p-0------3p-0-8-8-8-2-|


  S  S S  S S  S E  S  S E  S S S S    S  S S  S S  S E  S  S E  S S S S   
-----------------0-------0----------|-----------------0-------0-----------|
-----------------0-------0----------|-----------------0-------0-----------|
------------------------------------|-------------------------------------|
--Lp-0-2p-0-2p-0----2p-0----8-8-8-2-|--Lp-0-2p-0-2p-0----2p-0----8-8-8-2p-|
--Lp-0-2p-0-2p-0----2p-0----8-8-8-2-|--Lp-0-2p-0-2p-0----2p-0----8-8-8-2p-|
--Lp-0-2p-0-2p-0----2p-0----8-8-8-2-|--Lp-0-2p-0-2p-0----2p-0----8-8-8-2p-|


  S  S S S  S S E  S  S E  S S S S    S  S S  S S  S E  S  S E  E  E   
----------------0-------0----------|-----------------0-------0--------|
----------------0-------0----------|-----------------0-------0--------|
-----------------------------------|----------------------------------|
--Lp-0-2-0h-2-0----2p-0----8-8-8-2-|--Lp-0-2p-0-2p-0----2p-0----6--4--|
--Lp-0-2-0h-2-0----2p-0----8-8-8-2-|--Lp-0-2p-0-2p-0----2p-0----6--4--|
--Lp-0-2-0h-2-0----2p-0----8-8-8-2-|--Lp-0-2p-0-2p-0----2p-0----6--4--|


  E  E  E  E  E  E  E  E    
--------------------------||
--0--------0--------------||
--3--------3--------------||
-----5--4-----6--4--5--0--||
-----5--4-----6--4--5--0--||
-----5--4-----6--4--5--0--||





Right Speaker Guitar(Jordan?)



     W                   H.           S S S S  
E||-------------------|-----------------------|
B||-------------------|-----------------------|
G||-------------------|-----------------------|
D||-------------------|---------------6-6-6-0-|
A||-------------------|---------------6-6-6-0-|
D||-------------------|---------------6-6-6-0-|

NH = Natural Harmonics
       NH  NH  NH  NH  NH  NH  NH  NH  NH  NH         
  E    S   S   S   S   S   S   S   S   S   S S S S S  
-----------------------------------------------------|
-----------------------------------------------------|
-----------------------------------------------------|
--L------------------------------------------6-6-6-0-|
--L----4---4---4---4---4---4---4---4---4---4-6-6-6-0-|
--L------------------------------------------6-6-6-0-|


       NH  NH  NH  NH  NH  NH  NH  NH  NH  NH         
  E    S   S   S   S   S   S   S   S   S   S S S S S  
-----------------------------------------------------|
-----------------------------------------------------|
-----------------------------------------------------|
--L------------------------------------------6-6-6-0-|
--L----4---4---4---4---4---4---4---4---4---4-6-6-6-0-|
--L------------------------------------------6-6-6-0-|


       NH  NH  NH  NH  NH  NH  NH  NH  NH  NH         
  E    S   S   S   S   S   S   S   S   S   S S S S S  
-----------------------------------------------------|
-----------------------------------------------------|
-----------------------------------------------------|
--L------------------------------------------6-6-6-0-|
--L----4---4---4---4---4---4---4---4---4---4-6-6-6-0-|
--L------------------------------------------6-6-6-0-|


       NH  NH  NH  NH  NH  NH  NH  NH  NH  NH         
  E    S   S   S   S   S   S   S   S   S   S S S S S  
-----------------------------------------------------|
-----------------------------------------------------|
-----------------------------------------------------|
--L------------------------------------------6-6-6-0-|
--L----4---4---4---4---4---4---4---4---4---4-6-6-6-0-|
--L------------------------------------------6-6-6-0-|


  E  S  S S  S S  S S  S S  S S S S S    E  S  S S  S S  S S  S S  S S S S S  
--------------------------------------|--------------------------------------|
--------------------------------------|--------------------------------------|
--------------------------------------|--------------------------------------|
--L---------------------------6-6-6-0-|--L---------------------------6-6-6-0-|
--L-------5p-3------5p-3------6-6-6-0-|--L-------5p-3------5p-3------6-6-6-0-|
--L--3p-0------3p-0------3p-0-6-6-6-0-|--L--3p-0------3p-0------3p-0-6-6-6-0-|


  E  S  S S  S S  S S  S S  S S S S S    E  S  S S  S S  S S  S S  S S S S S  
--------------------------------------|--------------------------------------|
--------------------------------------|--------------------------------------|
--------------------------------------|--------------------------------------|
--L---------------------------6-6-6-0-|--L---------------------------8-8-8-2-|
--L-------5p-3------5p-3------6-6-6-0-|--L-------5p-3------5p-3------8-8-8-2-|
--L--3p-0------3p-0------3p-0-6-6-6-0-|--L--3p-0------3p-0------3p-0-8-8-8-2-|


  S  S S  S S  S E  S  S E  S S S S    S  S S  S S  S E  S  S E  S S S S  
-----------------0-------0----------|-----------------0-------0----------|
-----------------0-------0----------|-----------------0-------0----------|
------------------------------------|------------------------------------|
--Lp-0-2p-0-2p-0----2p-0----8-8-8-2-|--Lp-0-2p-0-2p-0----2p-0----8-8-8-2-|
--Lp-0-2p-0-2p-0----2p-0----8-8-8-2-|--Lp-0-2p-0-2p-0----2p-0----8-8-8-2-|
--Lp-0-2p-0-2p-0----2p-0----8-8-8-2-|--Lp-0-2p-0-2p-0----2p-0----8-8-8-2-|


  S  S S  S S  S E  S  S E  S S S S    S  S S  S S  S E  S  S E  S S S S  
-----------------0-------0----------|-----------------0-------0----------|
-----------------0-------0----------|-----------------0-------0----------|
------------------------------------|------------------------------------|
--Lp-0-2p-0-2p-0----2p-0----8-8-8-2-|--Lp-0-2p-0-2p-0----2p-0----8-8-8-0-|
--Lp-0-2p-0-2p-0----2p-0----8-8-8-2-|--Lp-0-2p-0-2p-0----2p-0----8-8-8-0-|
--Lp-0-2p-0-2p-0----2p-0----8-8-8-2-|--Lp-0-2p-0-2p-0----2p-0----8-8-8-0-|


  E  S  S S  S S  S S  S S  S S S S S    E  S  S S  S S  S S  S S  S S S S S  
--------------------------------------|--------------------------------------|
--------------------------------------|--------------------------------------|
--------------------------------------|--------------------------------------|
--L---------------------------6-6-6-0-|--L---------------------------6-6-6-0-|
--L-------5p-3------5p-3------6-6-6-0-|--L-------5p-3------5p-3------6-6-6-0-|
--L--3p-0------3p-0------3p-0-6-6-6-0-|--L--3p-0------3p-0------3p-0-6-6-6-0-|


  E  S  S S  S S  S S  S S  S S S S S    E  S  S S  S S  S S  S S  S S S S S  
--------------------------------------|--------------------------------------|
--------------------------------------|--------------------------------------|
--------------------------------------|--------------------------------------|
--L---------------------------6-6-6-0-|--L---------------------------8-8-8-2-|
--L-------5p-3------5p-3------6-6-6-0-|--L-------5p-3------5p-3------8-8-8-2-|
--L--3p-0------3p-0------3p-0-6-6-6-0-|--L--3p-0------3p-0------3p-0-8-8-8-2-|


  S  S S  S S  S E  S  S E  S S S S    S  S S  S S S E  S  S E  S S S S  
-----------------0-------0----------|----------------0-------0----------|
-----------------0-------0----------|----------------0-------0----------|
------------------------------------|-----------------------------------|
--Lp-0-2p-0-2p-0----2p-0----8-8-8-2-|--Lp-0-2p-0-2-0----2p-0----8-8-8-2-|
--Lp-0-2p-0-2p-0----2p-0----8-8-8-2-|--Lp-0-2p-0-2-0----2p-0----8-8-8-2-|
--Lp-0-2p-0-2p-0----2p-0----8-8-8-2-|--Lp-0-2p-0-2-0----2p-0----8-8-8-2-|


  S  S S  S S  S E  S  S E  S S S S    S  S S  S S  S E  S  S E  E  E   
-----------------0-------0----------|-----------------0-------0--------|
-----------------0-------0----------|-----------------0-------0--------|
------------------------------------|----------------------------------|
--Lp-0-2p-0-2p-0----2p-0----8-8-8-2-|--Lp-0-2p-0-2p-0----2p-0----6--4--|
--Lp-0-2p-0-2p-0----2p-0----8-8-8-2-|--Lp-0-2p-0-2p-0----2p-0----6--4--|
--Lp-0-2p-0-2p-0----2p-0----8-8-8-2-|--Lp-0-2p-0-2p-0----2p-0----6--4--|


  E  E  E  E  E  E  E  E     E  E  E  E  E  E  E  E   
--6--------6--------------|--------6--------6--------|
--0--------0--------------|--------0--------0--------|
--------------------------|--------------------------|
-----5--4-----6--4--5--0--|--6--4-----5--4-----6--4--|
-----5--4-----6--4--5--0--|--6--4-----5--4-----6--4--|
-----5--4-----6--4--5--0--|--6--4-----5--4-----6--4--|


  E  E  E  E  E  E  E  E     E  E  E  E  E  E  E  E   
--------------6--------6--|--------------------6-----|
--------------0--------0--|--------------------0-----|
--------------------------|--------------------------|
--5--0--6--4-----5--4-----|--6--4--5--0--6--4-----5--|
--5--0--6--4-----5--4-----|--6--4--5--0--6--4-----5--|
--5--0--6--4-----5--4-----|--6--4--5--0--6--4-----5--|


  E  E  E  E  E  E  E  E     H.           S S S S    E  E  H        S S S S  
-----6--------------------|--6--------------------|-------------------------|
-----0--------------------|--0--------------------|-------------------------|
--------------------------|-----------------------|-------------------------|
--4-----6--4--5-----0-----|---------------8-8-8-2-|--L--------------8-8-8-2-|
--4-----6--4--5-----0-----|---------------8-8-8-2-|--L--------------8-8-8-2-|
--4-----6--4--5-----0-----|---------------8-8-8-2-|--L--------------8-8-8-2-|


  E  E  H        S S S S    E  E  H        S S S S    E  E  H        E  E   
-------------------------|-------------------------|-----------------------|
-------------------------|-------------------------|-----------------------|
-------------------------|-------------------------|-----------------------|
--L--------------8-8-8-2-|--L--------------8-8-8-2-|--L--------------6--4--|
--L--------------8-8-8-2-|--L--------------8-8-8-2-|--L--------------6--4--|
--L--------------8-8-8-2-|--L--------------8-8-8-2-|--L--------------6--4--|


  E  E  E  E  E  E  E  E     E  E  E  E  E  E  E  E   
--6--------6--------------|--------6--------6--------|
--0--------0--------------|--------0--------0--------|
--------------------------|--------------------------|
-----5--4-----6--4--5--0--|--6--4-----5--4-----6--4--|
-----5--4-----6--4--5--0--|--6--4-----5--4-----6--4--|
-----5--4-----6--4--5--0--|--6--4-----5--4-----6--4--|


  E  E  E  E  E  E  E  E     E  E  E  E  E  E  E  E   
--------------6--------6--|--------------------6-----|
--------------0--------0--|--------------------0-----|
--------------------------|--------------------------|
--5--0--6--4-----5--4-----|--6--4--5--0--6--4-----5--|
--5--0--6--4-----5--4-----|--6--4--5--0--6--4-----5--|
--5--0--6--4-----5--4-----|--6--4--5--0--6--4-----5--|


  E  E  E  E  E  E  E  E     W                   W                 
-----6--------------------|--6----------------|--6----------------|
-----0--------------------|--0----------------|--0----------------|
--------------------------|-------------------|-------------------|
--4-----6--4--5-----0-----|-------------------|-------------------|
--4-----6--4--5-----0-----|-------------------|-------------------|
--4-----6--4--5-----0-----|-------------------|-------------------|


   TP                    TP                     
   W                     H.            S S S S  
---------------------|-------------------------|
---------------------|-------------------------|
---------------------|-------------------------|
---x\----------------|---x/------------6-6-6-0-|
---x\----------------|---x/------------6-6-6-0-|
---x\----------------|---x/------------6-6-6-0-|


  E  S  S S  S S  S S  S S  S S S S S    E  S  S S  S S  S S  S S  S S S S S  
--------------------------------------|--------------------------------------|
--------------------------------------|--------------------------------------|
--------------------------------------|--------------------------------------|
--L---------------------------6-6-6-0-|--L---------------------------6-6-6-0-|
--L-------5p-3------5p-3------6-6-6-0-|--L-------5p-3------5p-3------6-6-6-0-|
--L--3p-0------3p-0------3p-0-6-6-6-0-|--L--3p-0------3p-0------3p-0-6-6-6-0-|


  E  S  S S  S S  S S  S S  S S S S S    E  S  S S  S S  S S  S S  S S S S S  
--------------------------------------|--------------------------------------|
--------------------------------------|--------------------------------------|
--------------------------------------|--------------------------------------|
--L---------------------------6-6-6-0-|--L---------------------------8-8-8-2-|
--L-------5p-3------5p-3------6-6-6-0-|--L-------5p-3------5p-3------8-8-8-2-|
--L--3p-0------3p-0------3p-0-6-6-6-0-|--L--3p-0------3p-0------3p-0-8-8-8-2-|


  S  S S  S S  S E  S  S E  S S S S    S  S S  S S  S E  S  S E  S S S S  
-----------------0-------0----------|-----------------0-------0----------|
-----------------0-------0----------|-----------------0-------0----------|
------------------------------------|------------------------------------|
--Lp-0-2p-0-2p-0----2p-0----8-8-8-2-|--Lp-0-2p-0-2p-0----2p-0----8-8-8-2-|
--Lp-0-2p-0-2p-0----2p-0----8-8-8-2-|--Lp-0-2p-0-2p-0----2p-0----8-8-8-2-|
--Lp-0-2p-0-2p-0----2p-0----8-8-8-2-|--Lp-0-2p-0-2p-0----2p-0----8-8-8-2-|


  S  S S  S S  S E  S  S E  S S S S    S  S S  S S  S E  S  S E  E  E   
-----------------0-------0----------|-----------------0-------0--------|
-----------------0-------0----------|-----------------0-------0--------|
------------------------------------|----------------------------------|
--Lp-0-2p-0-2p-0----2p-0----8-8-8-2-|--Lp-0-2p-0-2p-0----2p-0----6--4--|
--Lp-0-2p-0-2p-0----2p-0----8-8-8-2-|--Lp-0-2p-0-2p-0----2p-0----6--4--|
--Lp-0-2p-0-2p-0----2p-0----8-8-8-2-|--Lp-0-2p-0-2p-0----2p-0----6--4--|


  E  E  E  E  E  E  E  E    
--6--------6--------------||
--0--------0--------------||
--------------------------||
-----5--4-----6--4--5--0--||
-----5--4-----6--4--5--0--||
-----5--4-----6--4--5--0--||




Duration Legend
---------------
W - whole
H - half
Q - quarter
E - 8th
S - 16th
T - 32nd
X - 64th
. - note dotted
|-n-|  - n-tuplets


Tablature Legend
----------------
L - tied note
x - dead note
g - grace note
(n) - ghost note
> - accentuded note
NH - natural harmonic
AH - artificial harmonic
TH - tapped harmonic
SH - semi harmonic
PH - pitch harmonic
h - hammer on
p - pull off
b - bend
br - bendRelease
pb - preBend
pbr - preBendRelease
brb - bendReleaseBend
\n/ - tremolo bar dip
\n - tremolo bar dive
-/n - tremolo bar Release up
/n\ - tremolo bar inverted dip
/n - tremolo bar return
-\n - tremolo bar Release down
S - shift slide
s - legato slide
/ -  slide into from below or out of upwards
\ -  slide into from above or out of downwards
~ - vibrato
W - wide vibrato
tr - trill
TP - tremolo picking
T - tapping
S - slap
P - pop
< - fade in
^ - brush up
v - brush down
Добавлено: 27.04.2012
Другие материалы по этой песне:

Страница создана 07.04.2012
http://primanota.ru/every-time-i-die/the-marvelous-slut-chords.htm
Привет, Гость.
Предлагаем пройти революционный курс по гитаре.
Подарок от PrimaNota.Ru, забирай!