PrimaNota.ru - самый крупный в мире бесплатный архив песенных текстов, аккордов, табулатур и нот


Every Time I Die - The Low Road Has No Exits - таба, видео

Регистрация Запомнить меня
Войти через:  Facebook Google Twitter Vk Yandex Mail.ru

Every Time I Die - The Low Road Has No Exits - таба, видео

Печатать
Просмотров: 73
-----------------------------------------------------------------
The Low Road Has No Exits - Every Time I Die
-----------------------------------------------------------------
Tabbed by: Jake Miller (millarso)
Email: millarso2.0@gmail.com
Tuning: Drop D
-----------------------------------------------------------------

Intro
e|-----------------|
B|-----------------|
G|-----------------|
D|-3-1-4-1-3-1-4-1-|
A|-3-1-4-1-3-1-4-1-|
D|-3-1-4-1-3-1-4-1-|

Section 1
e|---------------------------------------------------------------------------------|
B|---------------------------------------------------------------------------------|
G|--------------------------------------8-----5------------------------------------|
D|---------------------------10-12------7-----4------------------6-5-8-7-----------|
A|-TP------------12-13----10------------6-----3------7-8-0-6-8-9---------------3h5-|
D|--0-(x16)-0-10-------12----------0000---0000---0-5---------------------3h5p0-----|
    .                              ....   ....

e|-------------------------------------------------------------------------------|
B|-------------------------------------------------------------------------------|
G|--------------------------------------8-----5----------------------------------|
D|---------------------------10-12------7-----4------------------6-5-8-7-3-1-4-1-|
A|-TP------------12-13----10------------6-----3------7-8-0-6-8-9---------3-1-4-1-|
D|--0-(x16)-0-10-------12----------0000---0000---0-5---------------------3-1-4-1-|
    .                              ....   ....

e|------------------------------------------------------------------------------------|
B|------------------------------------------------------------------------------------|
G|--------------------------------------8-----5---------------------------------------|
D|---------------------------10-12------7-----4------------------6-5-8-7--------------|
A|-TP------------12-13----10------------6-----3------7-8-0-6-8-9---------------3h5p0)-|
D|--0-(x16)-0-10-------12----------0000---0000---0-5---------------------(3h5p0-------|
    .                              ....   ....

e|-----------------------------------------------------------------------|
B|-----------------------------------------------------------------------|
G|--------------------------------------8-----5--------------------------|
D|---------------------------10-12------7-----4------------------6-5-8-7-|
A|-TP------------12-13----10------------6-----3------7-8-0-6-8-9---------|
D|--0-(x16)-0-10-------12----------0000---0000---0-5---------------------|
    .                              ....   ....

Section 2
e|---------------------------|
B|--4-----------4------------|
G|--2-----------2------------|
D|--1-3-1-4-1-0-1-3-1-4-1-0--|
A|----3-1-4-1-0---3-1-4-1-0--|
D|----3-1-4-1-0---3-1-4-1-0--|

Section 3
e|----------------------------------------------------------------------|
B|----------------------------------------------------------------------|
G|-------8-------------------------8---------------------8--------------|
D|-------7-------------------------7---------------------7----3---4---1-|
A|-------6-------------3h5p0-------6-------------3h5p0---6----3---4---1-|
D|-0-0-0---0-0-0-3h5p0-------0-0-0---0-0-0-3h5p0-------0----0-3-0-4-0-1-|

e|-----------------------------------------------------------------|
B|-----------------------------------------4-----------4-----------|
G|-------8-------------------------8-------2-----------2-----------|
D|-------7-------------------------7-------1-3-1-4-1-0-1-3-1-4-1-0-|
A|-------6-------------3h5p0-------6---------3-1-4-1-0---3-1-4-1-0-|
D|-0-0-0---0-0-0-3h5p0-------0-0-0---0-0-0---3-1-4-1-0---3-1-4-1-0-|

Section 2 (x1)

Transition
e|---------------------------|
B|---------------------------|
G|-------8-------------------|
D|-------7-------------------|
A|-------6-------------------|
D|-0-0-0---0-0---(drum fill)-|
   . . .   . .

Section 1 (x1)
Section 2 (x2)

Section 4
Guitar 1
e|----------------------------------------------|
B|----------------------------------------------|
G|-------8b-------------------8b--------14b-----|
D|-------7b-------------------7b-----0--13b-(0)-|x2
A|-0-0-0-6b-0-0---------0-0-0-6b-0-0-0--12b-(0)-|
D|-0-0-0----0-0-3-1-4-1-0-0-0----0-0-0------(0)-|
   . . .    . .         . . .    . . 

Guitar 2
e|----------------------------------------------|
B|----------------------------------------------|
G|---------------------------------------4b-----|
D|-----------------------------------0---3b-(0)-|x2
A|-0-0-0----0-0---------0-0-0----0-0-0---2b-(0)-|
D|-0-0-0----0-0---------0-0-0----0-0-0------(0)-| (Play the open D every 2nd time)
   . . .    . .         . . .    . . 

Guitar 1
e|----------------------------------------------|
B|----------------------------------------------|
G|-------8b-------------------8b--------14b-----|
D|-------7b-------------------7b-----0--13b-(0)-|x4
A|-0-0-0-6b-0-0---------0-0-0-6b-0-0-0--12b-(0)-|
D|-0-0-0----0-0-3-1-4-1-0-0-0----0-0-0------(0)-|
   . . .    . .         . . .    . . 

Guitar 2
e|----------------------------------------------|
B|----------------------------------------------|
G|-------8b-------------------8b---------4b-----|
D|-------7b-------------------7b-----0---3b-(0)-|x4
A|-0-0-0-6b-0-0---------0-0-0-6b-0-0-0---2b-(0)-|
D|-0-0-0----0-0-3-1-4-1-0-0-0----0-0-0------(0)-|
   . . .    . .         . . .    . . 

Conclusion/Section 5
e|-------|
B|-------|
G|-------|
D|-4-3-1-|
A|-4-3-1-|
D|-4-3-1-|
Добавлено: 25.08.2013
Другие материалы по этой песне:

Страница создана 25.07.2013
http://primanota.ru/every-time-i-die/the-low-road-has-no-exits-chords.htm
Привет, Гость.
Предлагаем пройти революционный курс по гитаре.
Подарок от PrimaNota.Ru, забирай!