PrimaNota.ru - самый крупный в мире бесплатный архив песенных текстов, аккордов, табулатур и нот


Every Time I Die - The Emperor's New Clothes - текст песни, таба, видео

Регистрация Запомнить меня
Войти через:  Facebook Google Twitter Vk Yandex Mail.ru

Every Time I Die - The Emperor's New Clothes - текст песни, таба, видео

Печатать
Просмотров: 109
EVERYTIME I DIE - THE EMPERER'S NEW CLOTHES

    d|-------------------------|
    A|-------------------------|
GTR F|-------------------------|
 1  C|-------------------6-5---| 1,3
    G|-2-2--2-2--2-5-6-5-----6-|
    D|-0-0--0-0--0-------------|
       P M  P M PM

    d|-------------------------|
    A|-------------------------|
GTR F|-------------------6-5---|
 2  C|-------------5-6-5-----6-| 1,3
    G|-2-2--2-2--2-------------|
    D|-0-0--0-0--0-------------|
       P M  P M PM

    d|-------------------------|
    A|-------------------------|
GTR F|-----------------------6-|
 1  C|-------------------6-5---| 2,4
    G|-2-2--2-2--2-5-6-5-------|
    D|-0-0--0-0--0-------------|
       P M  P M PM

    d|-------------------------|
    A|-----------------------7-|
GTR F|-------------------6-5---|
 2  C|-------------5-6-5-------| 2,4
    G|-2-2--2-2--2-------------|
    D|-0-0--0-0--0-------------|
       P M  P M PM

    d|-------------------------------|
    A|-------------------------------|
GTR F|-------------------------------|
 1  C|-------------------------6-5---| 1,3
    G|-2-2-2-2-2-2-2-2-2-5-6-5-----6-|
    D|-0-0-0-0-0-0-0-0-0-------------|
       P M P M P M P MPM

    d|-------------------------------|
    A|-------------------------------|
GTR F|-------------------------6-5---|
 2  C|-------------------5-6-5-----6-| 1,3
    G|-2-2-2-2-2-2-2-2-2-------------|
    D|-0-0-0-0-0-0-0-0-0-------------|
       P M P M P M P MPM

    d|-------------------------------|
    A|-------------------------------|
GTR F|-----------------------------6-|
 1  C|-------------------------6-5---| 2,4
    G|-2-2-2-2-2-2-2-2-2-5-6-5-------|
    D|-0-0-0-0-0-0-0-0-0-------------|
       P M P M P M P MPM

    d|-------------------------------|
    A|-----------------------------7-|
GTR F|-------------------------6-5---|
 2  C|-------------------5-6-5-------| 2,4
    G|-2-2-2-2-2-2-2-2-2-------------|
    D|-0-0-0-0-0-0-0-0-0-------------|
       P M P M P M P MPM

    d|-------------------------|
    A|-------------------------|
GTR F|-------------------------|
 1  C|-------------------6-5---| 1,3
    G|-2-----------5-6-5-----6-|
    D|-0-----------------------|
       
    d|-------------------------|
    A|-------------------------|
GTR F|-------------------6-5---|
 2  C|-------------5-6-5-----6-| 1,3
    G|-2-----------------------|
    D|-0-----------------------|

    d|-------------------------|
    A|-------------------------|
GTR F|-----------------------6-|
 1  C|-------------------6-5---| 2,4
    G|-2-----------5-6-5-------|
    D|-0-----------------------|      

    d|-------------------------|
    A|-----------------------7-|
GTR F|-------------------6-5---|
 2  C|-------------5-6-5-------| 2,4
    G|-2-----------------------|
    D|-0-----------------------|

    d|-------------------------|
    A|-------------------------|
GTR F|-------------------------|
 1  C|-------------------6-5---| 1,3
    G|-2-2--2-2--2-5-6-5-----6-|
    D|-0-0--0-0--0-------------|
       P M  P M PM

    d|-------------------------|
    A|-------------------------|
GTR F|-------------------6-5---|
 2  C|-------------5-6-5-----6-| 1,3
    G|-2-2--2-2--2-------------|
    D|-0-0--0-0--0-------------|
       P M  P M PM

    d|-------------------------|
    A|-------------------------|
GTR F|-----------------------6-|
 1  C|-------------------6-5---| 2,4
    G|-2-2--2-2--2-5-6-5-------|
    D|-0-0--0-0--0-------------|
       P M  P M PM

    d|-------------------------|
    A|-----------------------7-|
GTR F|-------------------6-5---|
 2  C|-------------5-6-5-------| 2,4
    G|-2-2--2-2--2-------------|
    D|-0-0--0-0--0-------------|
       P M  P M PM

    d|-----------------------------|
    A|-----------------------------|
GTR F|-----------------------------|
1+2 C|-7--7--6----7--7--6----------| x2
    G|-4--4--4----4--4--4----------|
    D|-5--5--4----5--5--4--0--4----|

    d|----------------------------|
    A|-10-------------------------|
GTR F|----9---9-9-9-6-------------|
1+2 C|------7---7-7-6-------6-----| x4
    G|-------------------7-----7--|
    D|----------------------------|
                P M

    d|----------------------|
    A|----------------------|
GTR F|----------------------|
 1  C|----------------------|
    G|-2-2-6-5-2-3-3--3-2-2-|
    D|-0-0-4-3-0-1-1--1-0-0-|
       P M            PM P M

    d|----------------------|
    A|----------------------|
GTR F|----------------------|
 2  C|----------------------|
    G|----------------3-2-2-|
    D|----------------1-0-0-|
                      PMP M

    d|------------------------|
    A|------------------------|
GTR F|------------------------|
1+2 C|------------------------|
    G|-2-2-6-5-2-3-3--3-2-3-2-|
    D|-0-0-4-3-0-1-1--1-0-1-0-|
       P M            P M P M 

    d|---------------------------------|
    A|---------------------------------|
GTR F|---------------------------------|
1+2 C|---------------------------------|
    G|-2-2-6-5-2-3-3-2-2-6-5-2-3-3-3-2-|
    D|-0-0-4-3-0-1-1-0-0-4-3-0-1-1-1-0-|
       P M           P M           P M

    d|------------------------|
    A|------------------------|
GTR F|------------------------|
1+2 C|------------------------|
    G|-2-2-6-5-2-3-3--3-2-3-2-|
    D|-0-0-4-3-0-1-1--1-0-1-0-|
       P M            P M P M

    d|---------------------------------|
    A|---------------------------------|
GTR F|---------------------------------|
1+2 C|---------------------------------|
    G|-2-2-6-5-2-3-3-2-2-6-5-2-3-3-3-2-|
    D|-0-0-4-3-0-1-1-0-0-4-3-0-1-1-1-0-|
       P M           P M           P M

    d|------------------------|
    A|------------------------|
GTR F|------------------------|
1+2 C|------------------------|
    G|-2-2-6-5-2-3-3--3-2-3-2-|
    D|-0-0-4-3-0-1-1--1-0-1-0-|
       P M            P M P M

    d|-------------------------------------------------------------|
    A|-------------------6-5--8-7----------------------------------|
GTR F|----------7-4--5-6----------7-6--5-6-5-----------------------|
 1  C|------4-5-----------------------------------6-5-6------6-5-6-|
    G|-2--2---------------------------------------------7----------|
    D|-0--0--------------------------------------------------------|
       P  M

    d|-------------------------------------------------------------|
    A|-------------------------------------------------------------|
GTR F|-------------------6-5--8-7----------------------------------|
 2  C|----------7-4--5-6----------7-6--5-6-5-----------------------|
    G|-2--2-4-5-----------------------------------6-5-6------6-5-6-|
    D|-0--0---------------------------------------------7----------|
       P  M

    d|--------------------------------------------------------|
    A|--------------6-5--8-7----------------------------------|
GTR F|-----7-4--5-6----------7-6--5-6-5-----------------------|
 1  C|-4-5-----------------------------------6-5-6------6-5-6-|
    G|---------------------------------------------7----------|
    D|--------------------------------------------------------|

    d|--------------------------------------------------------|
    A|--------------------------------------------------------|
GTR F|--------------6-5--8-7----------------------------------|
 2  C|-----7-4--5-6----------7-6--5-6-5-----------------------|
    G|-4-5-----------------------------------6-5-6------6-5-6-|
    D|---------------------------------------------7----------|    

    d|-----------------------------------------------------|
    A|-----------------------------------------6-5---------|
GTR F|-----2---1-------3---2---4-5-5---4-5-7-8-----6-5-4-5-|
 1  C|-------3---2-3-4---4---2-2-3---6---------------------|
    G|-2-3---------1-2-------------------------------------|
    D|-0-1-------------------------------------------------|
       P M         P M         P M

    d|-----------------------------------------------------|
    A|-----------------------------------------------------|
GTR F|-------------------------4-5-------------6-5---------|
 2  C|-----2---1---3-4-3---2---2-3-5---4-5-7-8-----6-5-4-5-|
    G|-2-3---3---2-1-2---4---2-------6---------------------|
    D|-0-1-------------------------------------------------|
       P M         P M         P M

bass slide

    d|---------------------------------|
    A|---------------------------------|
GTR F|-------6-6-6-------6-6-6-6-6-6-6-|
1+2 C|-------5-5-5-------5-5-5-5-5-5-5-| x4
    G|-2-3-3-4-4-4-2-3-3-4-4-4-4-4-4-4-|
    D|-0-1-1-------0-1-1---------------|
       P MPM       P MPM

    d|---------------------------------------------------------|
    A|-----------------------------------------6-5-------------|
GTR F|-----2---1-------3---2---4-5-5---4-5-7-8-----6-5-4-5-4---|
 1  C|-------3---2-3-4---4---2-2-3---6-----------------------6-|
    G|-2-3---------1-2-----------------------------------------|
    D|-0-1-----------------------------------------------------|
       P M
  
    d|---------------------------------------------------------|
    A|---------------------------------------------------------|
GTR F|-------------------------4-5-------------6-5-------------|
 2  C|-----2---1---3-4-3---2---2-3-5---4-5-7-8-----6-5-4-5-4---|
    G|-2-3---3---2-1-2---4---2-------6-----------------------6-|
    D|-0-1-----------------------------------------------------|
       P M         P M         P M

    d|--------------------------------------|
    A|--------------------------------------|
GTR F|-------------------------4-----4------|
1+2 C|-------------------------4-----4------| x2
    G|-0-2-0-2-3-2-0-2-0-2-3-2-2-----2------|
    D|-0-2-0-2-3-2-0-2-0-2-3-2-0-----0------|
       P M P M P M P M P M P M

    d|-------------------------------------------------|
    A|-------------------------------------------------|
GTR F|-------------------------------------------------|
1+2 C|-------------------------------------------------| x2
    G|-0-2-0-2-3-2-0-2-0-2-0-2-3-2-0-2-0-2-0-2-0-2-3-2-|
    D|-0-2-0-2-3-2-0-2-0-2-0-2-3-2-0-2-0-2-0-2-0-2-3-2-|
       P M P M P M P M P M P M P M P M P M P M P M


just bass for a while

    d|-------------------------------|
    A|-------------------------------|
GTR F|-6---6--6---6--6---6--6---6----|
1+2 C|-6---6--6---6--5---5--5---5----| x4
    G|-------------------------------|
    D|-------------------------------|

Listen closely for the timing on this riff ^^^

    d|---------------------------------|
    A|---------------------------------|
GTR F|-6-6-6-6-6-6-6-6-6-6-6-6-6-6-6-6-|
 1  C|-----6-----6---6---5---5---5---5-| 1,3
    G|---------------------------------|
    D|---------------------------------|

    d|---------------------------------|
    A|---------------------------------|
GTR F|-6-6-6-6-6-6-6-6-6-6-6-----------|
 1  C|-----6-----6---6---5-5-----------| 2,4
    G|---------------------------------|
    D|---------------------------------|

    d|---------------------------------|
    A|---------------------------------|
GTR F|-6-6-6-6-6-6-6-6-6---------------|
1+2 C|-----6-----6---6-----------------| x4
    G|-------------------2-2-2-2-2-22-|
    D|-------------------0-0-0-0-0-0-0-|
                         P M P M P M PM

    d|-------------------------------------------------|
    A|-------------------------0--0--0--0--0--0--0--0--|
GTR F|-12-12-12-12-12-12-12-12-12-12-12-12-12-12-12-12-|
1+2 C|-11-11-11-11-11-11-11-11-10-10-10-10-10-10-10-10-| x2
    G|-0--0--13-0--0--13--0-13-0--0--0--0--0--0--0--0--|
    D|-------------------------------------------------|

    d|---------------------------------------|
    A|---------------------------------------|
GTR F|-12-12-12-12-12-12-12-12---------------|
1+2 C|-11-11-11-11-11-11-11-11---------------|
    G|-0--0--13-0--0--13-0--13-2-2----222--2-|
    D|-------------------------0-0----000--0-|
                               P M    P M  PM

    d|----------------------------------------|
    A|-------------------------0--0--0--0--0--|
GTR F|-12-12-12-12-12-12-12-12-12-12-12-12-12-|
1+2 C|-11-11-11-11-11-11-11-11-10-10-10-10-10-|
    G|-0--0--13-0--0--13--0-13-0--0--0--0--0--|
    D|----------------------------------------|

--------------------------------------------------------------------------

    d|--------------------------------------------------------------------|
    A|-------------6-5-8-7------------------------------------------------|
GTR F|-----7-4-5-6---------7-6-5-6-5-4-----5-3----------------------------|
1+2 C|-4-5-----------------------------3-3-----3p2-3-4-6/-7-7-5/-6-6-4/-5-|
    G|-------------------------------------------------4/-5-5-3/-4-4-2/-3-|
    D|--------------------------------------------------------------------|

    d|-------------------------------|
    A|-------------------------------|
GTR F|-7--7--7--------7--7--7--------| 
1+2 C|-6--6--6--------6--6--6--------|
    G|-5--5--5--------5--5--5--------|
    D|-------------------------------|

play section x4
--------------------------------------------------------------------------

    d|-------------------------------|
    A|-------------------------------|
GTR F|-7--7--7--------7--7--7--------| 
1+2 C|-6--6--6--------6--6--6--------|
    G|-5--5--5--------5--5--5--------|
    D|-------------------------------|

    d|-------------------------|
    A|-------------------------|
GTR F|-8--6--7--5--------------|
1+2 C|-6--4--5--3--6--4--5--3--|
    G|-6--4--5--3--4--2--3--1--|
    D|-------------4--2--3--1--|

    d|--------------------------------|
    A|--------------------------------|
GTR F|--------------------------------|
1+2 C|---------------6--4--5--3-------|
    G|-4--5--3--4----4--4--3--3--3-4--|
    D|-2--3--1--2----4--2--3--1--1-2--|
       P  M  P  M                P M

    d|-------------------------------------|
    A|-11--11--11-11--11--11--11--11-11-11-|
GTR F|-14--14--14-14--14--14--14--14-14-14-|
1+2 C|-------------------------------------| 
    G|-------------------------------------|
    D|-------------------------------------|

repeat two bars til fade.
Добавлено: 29.11.2013
Другие материалы по этой песне:
  • Аккорды и текст

Страница создана 03.03.2012
http://primanota.ru/every-time-i-die/the-emperors-new-clothes-chords.htm
Привет, Гость.
Предлагаем пройти революционный курс по гитаре.
Подарок от PrimaNota.Ru, забирай!