PrimaNota.ru - самый крупный в мире бесплатный архив песенных текстов, аккордов, табулатур и нот


Every Time I Die - Starve An Artist Cover Your Trash - таба, видео

Регистрация Запомнить меня
Войти через:  Facebook Google Twitter Vk Yandex Mail.ru

Every Time I Die - Starve An Artist Cover Your Trash - таба, видео

Печатать
Просмотров: 77
-----------------------------------------------------------------
Starve An Artist, Cover Your Trash - Every Time I Die
-----------------------------------------------------------------
Tabbed by: Jake Miller
Email: millarso2.0@gmail.com
Tuning: Drop D

Section 1 (x2)
e|-----------------------------------------|
B|-----------------------------------------|
G|---------------------------5-------4-----|
D|-3-1-3-1-3-4-3-4-3-1-3-1-3-5-3---2-4-2---|
A|-3-1-3-1-3-4-3-4-3-1-3-1-3-3-3---2-2-2---|
D|-3-1-3-1-3-4-3-4-3-1-3-1-3---3---2---2---|

e|-------------------------------------------------|
B|-------------------------------------------------|
G|-----7-----6-----------5---5-----4-------------3-|
D|-0-3-7-0-3-6-0-3-4-0-3-5---5-3-0-4-3-0-1-3-0-1-3-|
A|-0-3-5-0-3-4-0-3-4-0-3-3---3-3-0-2-3-0-1-3-0-1-1-|
D|-0-3---0-3---0-3-4-0-3-------3-0---3-0-1-3-0-1---|

Section 2 (sort of washed-out sounding)               1st Ending 2nd Ending
e|----------------------------------------------------|---------|-------|
B|----------------------------------------------------|---------|-------|
G|----------------------------------------------------|---------|---3---|
D|----------------------------------------------------|-------1-|-2-3-0-|x2
A|----------------------------------------------------|-------1-|-2-1-0-|
D|-3<33>-4-3-0-3<33>-4-3-000000-3<33>-4-3-0-3<33>-4-3-|-0000001-|-2---0-|
                         ......                         ......

Section 3
e|----------------------------------------------------|---------|---------|
B|----------------------------------------------------|---------|---------|
G|----------------------------------------------------|---------|-----3---|
D|-4-----4-3---4-----4-3--------4-----4-3---4-----4-3-|-------1-|---2-3-0-|x2
A|-3-0-0-3-2-0-3-0-0-3-2--------3-0-0-3-2-0-3-0-0-3-2-|-------1-|---2-1-0-|
D|-4-0-0-4-3-0-4-0-0-4-3-000000-4-0-0-4-3-0-4-0-0-4-3-|-0000001-|-002---0-|
     . .     .   . .     ......   . .     .   . .       ......    ..

Section 2 (x2)

e|----------------------------|
B|----------------------------|
G|----3----------10--13-------|
D|-2--3--0---0-6-10--13-10-6--|
A|-2--1--0---0-6--8--11-10-6--|
D|-2-----0---0-6--------10-6--|

Section 4
e|---------------------------------|
B|---------------------------------|
G|---7--7---6----6s10--10----------|
D|-6-7--7-5-6--5-6s10--10----------|x4
A|-6-5--5-5-4--5-4s-8---8----------|
D|-6------5----5----------99999999-|
                          ........
Section 5
e|--------------------------------------------------------------------------|
B|--------------------------------------------------------------------------|
G|-11-10--10-10-11--11-11-10--10-10-13--11-10--10-10-11--11-11-10--11-------|
D|-11-10--10-10-11--11-11-10--10-10-13--11-10--10-10-11--11-11-10--11-------|x2
A|--9--8---8--8--9---9--9--8---8--8-11---9--8---8--8--9---9--9--8---9-11(x8)|
D|--------------------------------------------------------------------------|
                                                                       .

Section 6
Guitar 1
e|-----------------------------------------|
B|-------12----12-15----12----------12-15~-|
G|----13----13-------13----13----13--------|
D|-12-------------------------12-----------|x2
A|-----------------------------------------|
D|-----------------------------------------|

Guitar 1
e|-------12----12-15----12----------12-15~-|
B|----14----14-------14----14----14--------|
G|-12-------------------------12-----------|
D|-----------------------------------------|x2
A|-----------------------------------------|
D|-----------------------------------------|

Guitar 2
e|-----------------------------------------|
B|--------5-----5--8-----5-----------5--8~-|
G|-----6-----6--------6-----6-----6--------|
D|--5--------------------------5-----------|x4
A|-----------------------------------------|
D|-----------------------------------------|
Bend the last note on both guitars before moving to next section.

Section 4 x1, but do the last of the 4 bars like this:
e|--------------------|
B|--------------------|
G|---7--7---6----9b10-|
D|-6-7--7-5-6--5--x-x-|
A|-6-5--5-5-4--5-7b-8-|
D|-6------5----5------|

Section 3 x2

Section 7
e|---------------------------------|
B|---------------------------------|
G|---------------------------------|
D|-10--10---0-------10--10---0-----|x2
A|--9---9-000-0-0-0--9---9-000-0-0-|
D|-10--10-000-0-0-0-10--10-000-0-0-|
          ..  . . .        ..  . .

End with:
e|----|
B|----|
G|----|
D|----|
A|-0--|
D|-0--|
   .

This has been the hardest one for me because it is so fast, but here it is as best 
as I can get it for now. 
That wraps up all the tabs for this album.
Please rate & comment.
Thanks,
millarso
Добавлено: 22.09.2013
Другие материалы по этой песне:
  • Аккорды и текст

Страница создана 22.09.2013
http://primanota.ru/every-time-i-die/starve-an-artist-cover-your-trash-chords.htm
Привет, Гость.
Предлагаем пройти революционный курс по гитаре.
Подарок от PrimaNota.Ru, забирай!