PrimaNota.ru - самый крупный в мире бесплатный архив песенных текстов, аккордов, табулатур и нот


Every Time I Die - Saturnalia - таба, видео

Регистрация Запомнить меня
Войти через:  Facebook Google Twitter Vk Yandex Mail.ru

Every Time I Die - Saturnalia - таба, видео

Печатать
Просмотров: 64
---------------------------------
  Saturnalia - Every Time I Die
---------------------------------
Tabbed by: millarso (Jake Miller)
E-mail: millarso2.0@gmail.com

Tuning: Drop D

Guitar 1: Left Stereo
Guitar 2: Right Stereo

INTRO
Guitar 1
E|------------------|
B|-7----------------|
G|-------6-7-6------|
D|---5--------------|
A|-----6-------5-6~-|
D|------------------|
||
Guitar 2
E|------------------|
B|------------------|
G|-4----------------|
D|-------4-5-4------|
A|---3-0------------|
D|-------------5-6~-|

SECTION 1
Both Guitars
E|---------------------------------------------------|
B|---------------------------------------------------|
G|-4-----4-----4-------------4-----4-----4---------6-|
D|-x-----x-----x-----2-3-2-0-x-----x-----x---------x-|
A|-3-000-3-000-3-000-2-3-2-0-3-000-3-000-3-000-0-0-5-|
D|---000---000---000-2-3-2-0---000---000---000-0-0---|
     ...   ...   ...           ...   ...   ... . .

E|-------------------------------------------------------|
B|-------------------------------------------------------|
G|-4-----4-----4-------------4-----4---------------------|
D|-x-----x-----x-----2-3-2-0-x-----x-----------5b6r5-----|
A|-3-000-3-000-3-000-2-3-2-0-3-000-3-000-2-3-0-----------|
D|---000---000---000-2-3-2-0---000---000-------------6p0-|
     ...   ...   ...           ...   ...

E|---------------------------------------------------|
B|---------------------------------------------------|
G|-4-----4-----4-------------4-----4-----4---------6-|
D|-x-----x-----x-----2-3-2-0-x-----x-----x---------x-|
A|-3-000-3-000-3-000-2-3-2-0-3-000-3-000-3-000-0-0-5-|
D|---000---000---000-2-3-2-0---000---000---000-0-0---|
     ...   ...   ...           ...   ...   ... . .

E|-----------------------------------------------------------------|
B|-----------------------------------------------------------------|
G|-4-----4-----4-------------4-----4-------------------1111-111111-|
D|-x-----x-----x-----2-3-2-0-x-----x-----1010-101010-101111-111111-|
A|-3-000-3-000-3-000-2-3-2-0-3-000-3-000-1010-101010-10-9-9--9-9-9-|
D|---000---000---000-2-3-2-0---000---000-1010-101010-10------------|
     ...   ...   ...           ...   ...

E|---------------------------------------------------|
B|---------------------------------------------------|
G|-4-----4-----4-------------4-----4-----4---------6-|
D|-x-----x-----x-----2-3-2-0-x-----x-----x---------x-|
A|-3-000-3-000-3-000-2-3-2-0-3-000-3-000-3-000-0-0-5-|
D|---000---000---000-2-3-2-0---000---000---000-0-0---|
     ...   ...   ...           ...   ...   ... . .

E|-------------------------------------------------------3h4p3-----------------------------|
B|-------------------------------------------------------------4h5-------------------------|
G|-4-----4-----4-------------4-----4-------------------------------4p3---------------------|
D|-x-----x-----x-----2-3-2-0-x-----x-----------5b6r5-------------------4h5-----------------|
A|-3-000-3-000-3-000-2-3-2-0-3-000-3-000-2-3-0---------------------------------------------|
D|---000---000---000-2-3-2-0---000---000-------------6p0-------------------6-5-4-0-5-4-3-0-|
     ...   ...   ...           ...   ...

TRANSITION
Both Guitars
E|----------------|
B|----------------|
G|----------------|
D|-0-----11-12-11-|
A|-0-----11-12-11-|
D|-0-----11-12-11-|

SECTION 2
Both Guitars
E|----------------------------------------------------------------|
B|----------------------------------------------------------------|
G|----4-4-3-3--(3)----------6-7-6----4----------------------------|
D|-0--2-2-1-1--(1)----------6-7-6-0----------4-5-4---------3-2-1--|
A|-0--2-2-1-1--(1)--0-2-3-0-4-5-4-0----3-----------6-5-3-2-3-2-1--|
D|-0----------------0-2-3-0-------0------5-6---------------3-2-1--|
                    . . . .
E|------------------------------------------------------------|
B|------------------------------------------------------------|
G|----4-4-3-3----------6-7-6----4-----------------------------|
D|-0--2-2-1-1----------6-7-6-0----------4-5-4-----------1-2-4-|
A|-0--2-2-1-1--0-2-3-0-4-5-4-0----3-----------6-5-3-2-0-1-2-4-|
D|-0-----------0-2-3-0-------0------5-6---------------0-1-2-4-|
               . . . .                                .

E|-----------------------------------------------------------|
B|-----------------------------------------------------------|
G|----4-4-3-3----------6-7-6----4----------------------------|
D|-0--2-2-1-1----------6-7-6-0----------4-5-4---------3-2-1--|
A|-0--2-2-1-1--0-2-3-0-4-5-4-0----3-----------6-5-3-2-3-2-1--|
D|-0-----------0-2-3-0-------0------5-6---------------3-2-1--|
               . . . .
E|--------------------------------------------------------------------|
B|--------------------------------------------------------------------|
G|----4-4-3-3----------6-7-6----4-------------------------------------|
D|-0--2-2-1-1----------6-7-6-0----------4-5-4-----------1-2-4---1-2-4-|
A|-0--2-2-1-1--0-2-3-0-4-5-4-0----3-----------6-5-3-2-0-1-2-4-0-1-2-4-|
D|-0-----------0-2-3-0-------0------5-6---------------0-1-2-4-0-1-2-4-|
               . . . .                                .       .

NOTE: The chord in () only gets played the first time in the song

SECTION 3
Guitar 1
E|-----------------------------------------|
B|-----------------------------------------|
G|-4-----4-------------4-----4-------------|
D|-x-----x-----2-3-2-0-x-----x-----2-3-2-0-|
A|-3-000-3-000-2-3-2-0-3-000-3-000-2-3-2-0-|
D|---000---000-2-3-2-0---000---000-2-3-2-0-|
||   ...   ...           ...   ...
Guitar 2
E|-----------------------------------------|
B|-----------------------------------------|
G|-4-----4-------------4-----4-------------|
D|-x-----x-------------x-----x-------------|
A|-3-----3-------------3-----3-------------|
D|-----------------------------------------|

Both Guitars
E|-------------------------------------------------------|
B|-------------------------------------------------------|
G|---------------1111-111111-11--------------1111-111111-|
D|-1010-101010-101111-111111-111010-101010-101111-111111-|
A|-1010-101010-10-9-9--9-9-9--91010-101010-10-9-9--9-9-9-|
D|-1010-101010-10--------------1010-101010-10------------|

E|-----------------------------------------|
B|-----------------------------------------|
G|-4-----4-------------4-----4-------------|
D|-x-----x-----2-3-2-0-x-----x-----2-3-2-0-|
A|-3-000-3-000-2-3-2-0-3-000-3-000-2-3-2-0-|
D|---000---000-2-3-2-0---000---000-2-3-2-0-|
     ...   ...           ...   ...
E|-------------------------------------------------------|
B|-------------------------------------------------------|
G|---------------1111-111111-11--------------1111-111111-|
D|-1010-101010-101111-111111-111010-101010-101111-111111-|
A|-1010-101010-10-9-9--9-9-9--91010-101010-10-9-9--9-9-9-|
D|-1010-101010-10--------------1010-101010-10------------|

Guitar 1
E|-----------------------------------------------------------------------------------|
B|-----------------------------------------------------------------------------------|
G|-4-----4-------------4-----4-------------------------------------------------------|
D|-x-----x-----2-3-2-0-x-----x-----------5b6r5---------------------------------------|
A|-3-000-3-000-2-3-2-0-3-000-3-000-2-3-0---------------------------------------------|
D|---000---000-2-3-2-0---000---000-------------6p0-------------------6-5-4-0-5-4-3-0-|
||   ...   ...           ...   ...
Guitar 2
E|-------------------------------------------------3h4p3-----------------------------|
B|-------------------------------------------------------4h5-------------------------|
G|-4-----4-------------4-----4-------------------------------4p3---------------------|
D|-x-----x-----2-3-2-0-x-----x-----------------------------------4h5-----------------|
A|-3-000-3-000-2-3-2-0-3-000-3-000---------------------------------------------------|
D|---000---000-2-3-2-0---000---000-----------------------------------6-5-4-0-5-4-3-0-|
     ...   ...           ...   ...

REPEAT SECTION 2

SECTION 4
Both Guitars
E|--------------------------------------------------------|
B|--------------------------------------------------------|
G|-4-------------4-------------4-------------4---4--------|
D|-x-------------x-------------x-------------x---------5\-|
A|-3-000-000-000-3-000-000-000-3-000-000-000-3-0---3-0----|
D|---000-000-000---000-000-000---000-000-000---0----------|
     ... ... ...   ... ... ...   ... ... ...   .

E|------------------------------------------------------|
B|------------------------------------------------------|
G|-4-------------4-------------4-------------4---4------|
D|-x-------------x-------------x-------------x----------|
A|-3-000-000-000-3-000-000-000-3-000-000-000-3-0---3-0--|
D|---000-000-000---000-000-000---000-000-000---0--------|
     ... ... ...   ... ... ...   ... ... ...   .

SECTION 5
Both Guitars
E|--------------------------------------------------------|
B|--------------------------------------------------------|
G|-4-----------------------------------------4---4--------|
D|-x-----------------------------------------x---------5\-|
A|-3-000-000-000---000-000-000---000-000-000-3-0---3-0----|
D|---000-000-000---000-000-000---000-000-000---0----------|
     ... ... ...   ... ... ...   ... ... ...   .

E|------------------------------------------------------|
B|------------------------------------------------------|
G|-4-----------------------------------------4---4------|
D|-x-----------------------------------------x----------|
A|-3-000-000-000---000-000-000---000-000-000-3-0---3-0--|
D|---000-000-000---000-000-000---000-000-000---0--------|
     ... ... ...   ... ... ...   ... ... ...   .

REPEAT SECTION 5

END

I haven't tabbed anything in a while so hopefully I haven't lost my edge.
There are some strange notes here and there, but this should be close.
Please rate & comment.
Thanks,
millarso

************************************

| .   palm mute
| /   slide up
| \   slide down
| h   hammer-on
| p   pull-off
| ~   vibrato
| +   harmonic
| x   Mute note
| b   Bend
| pb  Pre-bend
| br  Bend release
| pbr Pre-bend release
| brb Bend release bend

************************************
Добавлено: 07.06.2016
Другие материалы по этой песне:
  • Аккорды и текст

Страница создана 07.06.2016
http://primanota.ru/every-time-i-die/saturnalia-chords.htm
Привет, Гость.
Предлагаем пройти революционный курс по гитаре.
Подарок от PrimaNota.Ru, забирай!