PrimaNota.ru - самый крупный в мире бесплатный архив песенных текстов, аккордов, табулатур и нот


Every Time I Die - Romeo A Go-go - текст песни, таба, бас-таба, видео

Регистрация Запомнить меня
Войти через:  Facebook Google Twitter Vk Yandex Mail.ru

Every Time I Die - Romeo A Go-go - текст песни, таба, бас-таба, видео

Печатать
Просмотров: 186
As recorded by Every Time I Die
                         (From the 2003 Album HOT DAMN!)

Words by Keith Buckley

Music by Every Time I Die
Transcribed by Austin Mills

Gtr I (D A D G B E) - 'w/dist'
Gtr II (D A D G B E) - 'w/dist'

 Intro                    Verse
  Fast Hardcore Q=230
  N.C.
 13/8                     7/8
  Gtr I
  E  H.       +H.          E E E E E E E
|---<7>------(<7>)------||---------------|
|---<7>------(<7>)------||---------------|
|---<7>------(<7>)------||---------------|
|---<7>------(<7>)------||---------3-----|
|-----------------------||-----------4p0-|
|-----------------------||-7p0-7p0-------|
|
| Gtr II
| E  H.       +H.          E E E E E E E
|---<4>------(<4>)------||---------------|
|---<4>------(<4>)------||---------------|
|---<4>------(<4>)------||---------------|
|---<4>------(<4>)------||---------3-----|
|-----------------------||-----------4p0-|
|-----------------------||-7p0-7p0-------|


                                 9/8
  E E E E E E E   E E E E E E E   E E E E E E E Q
|---------------|---------------|-------------------|
|---------------|---------------|-------------------|
|---------------|---------------|-------------------|
|---------3-----|---------3-----|---------3---------|
|-----------4p0-|-----------4p0-|-----------4p0-4---|
|-6p0-7p0-------|-7p0-7p0-------|-6p0-7p0-----------|
|
| E E E E E E E   E E E E E E E   E E E E E E E Q
|---------------|---------------|-------------------|
|---------------|---------------|-------------------|
|---------------|---------------|-------------------|
|---------3-----|---------3-----|---------3---------|
|-----------4p0-|-----------4p0-|-----------4p0-4---|
|-6p0-7p0-------|-7p0-7p0-------|-6p0-7p0-----------|


 7/8                                             9/8
  Gtrs I, II
  E E E E E E E   E E E E E E E   E E E E E E E   E E E E E E E Q
|---------------|---------------|---------------|-------------------||
|---------------|---------------|---------------|-------------------||
|---------------|---------------|---------------|-------------------||
|---------3-----|---------3-----|---------3-----|---------3---------||
|-----------4p0-|-----------4p0-|-----------4p0-|-----------4p0-4---||
|-6p0-7p0-------|-6p0-7p0-------|-7p0-7p0-------|-6p0-7p0-----------||


   D5       N.C.
  7/8                                                9/8
   Gtr I
   E.  E.   H         W               W               H       E E E Q
||------------------|---------------|---------------|-------------------||
||------------------|---------------|---------------|-------------------||
||------------------|---------------|---------------|-------------------||
||-0----------------|---------------|---------------|---------3---------||
||-0----------------|---------------|---------------|-----------4p0-4---||
||-0----------------|---------------|---------------|-------------------||
|
|  Gtr II
|  E E    E E E E E   E E E E E E E   E E E E E E E   E E E E E E E Q
||------------------|---------------|---------------|-------------------||
||------------------|---------------|---------------|-------------------||
||------------------|---------------|---------------|-------------------||
||------------3-----|---------3-----|---------3-----|---------3---------||
||--------------4p0-|-----------4p0-|-----------4p0-|-----------4p0-4---||
||-6p0----7p0-------|-6p0-7p0-------|-6p0-7p0-------|-6p0-7p0-----------||


 Pre-Verse
  N.C.
 4/4
  Gtr I
  >
  W                +W                 W                W
|-0--------------|-(0)--------------|----------------|----------------||
|-0--------------|-(0)--------------|----------------|----------------||
|-0--------------|-(0)--------------|----------------|----------------||
|----------------|------------------|----------------|----------------||
|----------------|------------------|----------------|----------------||
|----------------|------------------|----------------|----------------||
|
| Gtr II
| E E E E Q  E E    E  E Q  E E E E   E E E E Q  E E   E E Q  E E E E
|----------------|------------------|----------------|----------------||
|----------------|------------------|----------------|----------------||
|----------------|------------------|----------------|----------------||
|----------------|------------------|----------------|----------------||
|----------------|------------------|----------------|----------------||
|-4-3-0-3-0--4-3-|--0--3-0--4-3-0-3-|-4-3-0-3-0--4-3-|-0-3-0--4-3-0-3-||


 Verse
  N.C.
 7/8                                                             6/8
  Gtrs I, II
  E E E E E E E   E E E E E E E   E E E E E E E   E E E E E E E   H.
|---------------|---------------|---------------|---------------|-------|
|---------------|---------------|---------------|---------------|-------|
|---------------|---------------|---------------|---------------|-6-----|
|---------3-----|---------3-----|---------3-----|---------3-----|-5-----|
|-----------4p0-|-----------4p0-|-----------4p0-|-----------4p0-|-4-----|
|-6p0-7p0-------|-6p0-7p0-------|-6p0-7p0-------|-6p0-7p0-------|-------|


 7/8                             6/8
  E E E E E E E   E E E E E E E   H.
|---------------|---------------|-------|
|---------------|---------------|-------|
|---------------|---------------|-6-----|
|---------3-----|---------3-----|-5-----|
|-----------4p0-|-----------4p0-|-4-----|
|-6p0-7p0-------|-6p0-7p0-------|-------|


 7/8                                             9/8
  E E E E E E E   E E E E E E E   E E E E E E E   E E E E E E E E E
|---------------|---------------|---------------|--------------------|
|---------------|---------------|---------------|--------------------|
|---------------|---------------|---------------|--------------------|
|---------3-----|---------3-----|---------3-----|---------3----------|
|-----------4p0-|-----------4p0-|-----------4p0-|-----------4p0-4p0--|
|-7p0-7p0-------|-6p0-7p0-------|-6p0-7p0-------|-6p0-7p0------------|


                                                                  Slower Q=160
 7/8                                                             4/4
  E E E E E E E   E E E E E E E   E E E E E E E   E E E E E E E   W
|---------------|---------------|---------------|---------------|------||
|---------------|---------------|---------------|---------------|------||
|---------------|---------------|---------------|---------------|-6----||
|---------3-----|---------3-----|---------3-----|---------3-----|-5----||
|-----------4p0-|-----------4p0-|-----------4p0-|-----------4p0-|-4----||
|-6p0-7p0-------|-6p0-7p0-------|-7p0-7p0-------|-6p0-7p0-------|------||


   N.C.D5N.D5
   Gtrs I, II
   E E E E E Q.     W
||----------------|------||
||----------------|------||
||----------------|------||
||-4-3---3-0------|------||
||-3-2-0-2-0------|------||
||-4-3-0-3-0------|------||


 Chorus
  N.C.D5N.D5       N.C.D5N.D5       N.D5N.D5  N.C.        D5N.D5
  Gtr I
  E E E E E Q.     E E E E E Q.     E E E E E E E E   E E E E E Q.
|----------------|----------------|-----------------|-----------------|
|----------------|----------------|-----------------|-----------------|
|----------------|----------------|-----------------|-----------------|
|-4-3---3-0------|-4-3---3-0------|-4-3---3---3-4-3-|-4-3---3-0-------|
|-3-2-0-2-0------|-3-2-0-2-0------|-3-2-0-2-0-2-3-2-|-3-2-0-2-0-------|
|-4-3-0-3-0------|-4-3-0-3-0------|-4-3-0-3-0-3-4-3-|-4-3-0-3-0-------|
|
| Gtr II
|                                   PM------------|
| E E E E E Q.     E E E E E Q.     E E E E E E E E   E E E E E Q.
|----------------|----------------|-----------------|-----------------|
|----------------|----------------|-----------------|-----------------|
|----------------|----------------|-----------------|-----------------|
|-4-3---3-0------|-4-3---3-0------|-----------------|-4-3---3-0-------|
|-3-2-0-2-0------|-3-2-0-2-0------|-3-2-0-2-0-2-3-2-|-3-2-0-2-0-------|
|-4-3-0-3-0------|-4-3-0-3-0------|-4-3-0-3-0-3-4-3-|-4-3-0-3-0-------|


  N.C.D5N.D5       N.C.D5N.D5N.C.        D5N.D5       N.C.D5N.D5
  Gtr I
  E E E E E Q.     E E E E E E E E   E E E E E Q.     E E E E E Q.
|----------------|-----------------|----------------|-----------------|
|----------------|-----------------|----------------|-----------------|
|----------------|-----------------|----------------|-----------------|
|-4-3---3-0------|-4-3---3---3-4-3-|-4-3---3-0------|-4-3---3-0-------|
|-3-2-0-2-0------|-3-2-0-2-0-2-3-2-|-3-2-0-2-0------|-3-2-0-2-0-------|
|-4-3-0-3-0------|-4-3-0-3-0-3-4-3-|-4-3-0-3-0------|-4-3-0-3-0-------|
|
| Gtr II
|                  PM----|
| E E E E E Q.     E E E E H         E E E E E Q.     E E E E E Q.
|----------------|-----------------|----------------|-----------------|
|----------------|-----------------|----------------|-----------------|
|----------------|-----------------|----------------|-----------------|
|-4-3---3-0------|-----------------|-4-3---3-0------|-4-3---3-0-------|
|-3-2-0-2-0------|-3-2-0-2---------|-3-2-0-2-0------|-3-2-0-2-0-------|
|-4-3-0-3-0------|-4-3-0-3---------|-4-3-0-3-0------|-4-3-0-3-0-------|


  N.C.D5N.D5N.C.        D5N.D5
                   6/4
          PM----|
  E E E E E E E E   E E E E W
|-----------------|--------------||
|-----------------|--------------||
|-----------------|--------------||
|-4-3---3---------|-4-3---3-0----||
|-3-2-0-2-0-2-3-2-|-3-2-0-2-0----||
|-4-3-0-3-0-3-4-3-|-4-3-0-3-0----||
|
| PM----|
| E E E E H         E E E E W
|-----------------|--------------||
|-----------------|--------------||
|-----------------|---------0----||
|-----------------|-4-3---3-0----||
|-3-2-0-2---------|-3-2-0-2-0----||
|-4-3-0-3---------|-4-3-0-3-0----||


 Interlude
  N.C.D5N.D5         N.C.D5N.D5
  Gtr I
  E E E E W          E E E E W
|---------0--------|--------------||
|---------0--------|--------------||
|---------0--------|--------------||
|-4-3---3-0--------|-4-3---3-0----||
|-3-2-0-2-0--------|-3-2-0-2-0----||
|-4-3-0-3-0--------|-4-3-0-3-0----||
|
| Gtr II
| E E E E W          E E E E W
|------------------|--------------||
|------------------|--------------||
|------------------|--------------||
|-4-3---3-0--------|-4-3---3-0----||
|-3-2-0-2-0--------|-3-2-0-2-0----||
|-4-3-0-3-0--------|-4-3-0-3-0----||


 Verse
  Faster Q=198
  N.C.D5N.D5 N.C.  D5N.D5 N.C.D5N.C.    D5N.D5 N.C.
 4/4
  Gtrs I, II
                                                     TP TP TP  ~~~
  E E E E Q  E E   E E Q  E E E E   E E E E Q  E E   Q  Q  Q   Q
|----------------|----------------|----------------|---------------|
|----------------|----------------|----------------|---------------|
|----------------|----------------|----------------|---------------|
|-4-3---3-0--4-3-|---3-0--4-3---3-|-4-3---3-0--4-3-|-3-------------|
|-3-2-0-2-0--3-2-|-0-2-0--3-2-0-2-|-3-2-0-2-0--3-2-|----4--0--[6]--|
|-4-3-0-3-0--4-3-|-0-3-0--4-3-0-3-|-4-3-0-3-0--4-3-|---------------|


  N.C.D5N.D5 N.C.  D5N.D5 N.C.D5N.C.    D5N.D5 N.C.  E#5  C#5  A5  G#5
  E E E E Q  E E   E E Q  E E E E   E E E E Q  E E    E E  E E E E E E
|----------------|----------------|----------------|--------------------||
|----------------|----------------|----------------|--------------------||
|----------------|----------------|----------------|-10-----------------||
|-4-3---3-0--4-3-|---3-0--4-3---3-|-4-3---3-0--4-3-|-10---11---7---6----||
|-3-2-0-2-0--3-2-|-0-2-0--3-2-0-2-|-3-2-0-2-0--3-2-|--8---11---7---6----||
|-4-3-0-3-0--4-3-|-0-3-0--4-3-0-3-|-4-3-0-3-0--4-3-|------11---7---6----||


 Verse
  Faster Q=230
  N.C.
 7/8                                             9/8
  Gtrs I, II
  E E E E E E E   E E E E E E E   E E E E E E E   E E E E E E E Q
|---------------|---------------|---------------|-------------------|
|---------------|---------------|---------------|-------------------|
|---------------|---------------|---------------|-------------------|
|---------3-----|---------3-----|---------3-----|---------3---------|
|-----------4p0-|-----------4p0-|-----------4p0-|-----------4p0-4---|
|-6p0-7p0-------|-6p0-7p0-------|-7p0-7p0-------|-6p0-7p0-----------|


 7/8                                             9/8
  E E E E E E E   E E E E E E E   E E E E E E E   E E E E E E E Q
|---------------|---------------|---------------|-------------------|
|---------------|---------------|---------------|-------------------|
|---------------|---------------|---------------|-------------------|
|---------3-----|---------3-----|---------3-----|---------3---------|
|-----------4p0-|-----------4p0-|-----------4p0-|-----------4p0-4---|
|-6p0-7p0-------|-6p0-7p0-------|-6p0-7p0-------|-6p0-7p0-----------|


 7/8         4/4        7/8         9/8
  Gtrs I, II
  Q  E H      W          Q  E H      H.      E Q
|-----------|----------|-----------|---------------|
|-0---------|----------|-0---------|---------------|
|-0---------|----------|-0---------|---------------|
|-0---------|----------|-0---------|---------------|
|-0---------|----------|-0---------|-----------4---|
|-0---------|----------|-0---------|---------------|


  D5                     N.C.
 7/8         4/4        7/8         9/8
  Gtr I
  Q  E H      W          H..         +H..       Q
|-----------|----------|-----------|----------------||
|-0---------|----------|-0---------|-(0)------------||
|-0---------|----------|-0---------|-(0)------------||
|-0---------|----------|-0---------|-(0)------------||
|-0---------|----------|-0---------|-(0)--------4---||
|-0---------|----------|-0---------|-(0)------------||
|
| Gtr II
| Q  E H      W          H..         +H..       Q
|-----------|----------|-----------|----------------||
|-----------|----------|-0---------|-(0)------------||
|-----------|----------|-0---------|-(0)------------||
|-0---------|----------|-0---------|-(0)------------||
|-0---------|----------|-0---------|-(0)--------4---||
|-0---------|----------|-0---------|-(0)------------||


 Breakdown
  Slower Q=188
  N.D5  N.D5    D5  N.D5    N.D5        N.D5  N.D5
 4/4
  Gtrs I, II
    PM|   PM|   PM|   PM|     PM|   PM|   PM|   PM|
  E S S E S S E S S E S S   E S S E S S E S S E S S   W          W
|-------------------------|-------------------------|----------|------|
|-------------------------|-------------------------|----------|------|
|-------------------------|-------------------------|----------|-0----|
|-4-----3-----0-----4-----|-3-----0-----4-----3-----|----------|-0----|
|-3-0-0-2-0-0-0-0-0-3-0-0-|-2-0-0-0-0-0-3-0-0-2-0-0-|----------|-0----|
|-4-0-0-3-0-0-0-0-0-4-0-0-|-3-0-0-0-0-0-4-0-0-3-0-0-|----------|-0----|


    N.D5  N.D5        N.D5    N.D5        N.D5  N.D5
      PM|   PM|   PM|   PM|     PM|   PM|   PM|   PM|
    E S S E S S E S S E S S   E S S E S S E S S E S S
||--------------------------|--------------------------||
||o-------------------------|-------------------------o||
||--------------------------|--------------------------||
||--4-----3-----0-----4-----|-3-----0-----4-----3------||
||o-3-0-0-2-0-0-0-0-0-3-0-0-|-2-0-0-0-0-0-3-0-0-2-0-0-o||
||--4-0-0-3-0-0-0-0-0-4-0-0-|-3-0-0-0-0-0-4-0-0-3-0-0--||


   N.D5  N.D5        N.D5    N.D5        N.D5  N.C.
   Gtr II
     PM|   PM|   PM|   PM|     PM|   PM|   PM|
   E S S E S S E S S E S S   E S S E S S E S S E E
||-------------------------|-----------------------||
||-------------------------|-----------------------||
||-------------------------|-----------------------||
||-4-----3-----0-----4-----|-3-----0-----4-----3---||
||-3-0-0-2-0-0-0-0-0-3-0-0-|-2-0-0-0-0-0-3-0-0-2---||
||-4-0-0-3-0-0-0-0-0-4-0-0-|-3-0-0-0-0-0-4-0-0-3-0-||


   Breakdown
    N.C. D5
    Gtrs I, II
     ~~~ PM----|      PM----|    PM|
     Q   E E E E Q    E E E E Q  E E
||------------------|----------------|
||o-----------------|----------------|
||------------------|----------------|
||------------------|----------------|
||o-[4]--0-0-0-0----|-0-0-0-0----0-0-|
||-------0-0-0-0----|-0-0-0-0----0-0-|


  N.D5  N.D5        N.D5    N.D5        N.D5  N.C.
    PM|   PM|   PM|   PM|     PM|   PM|   PM|
  E S S E S S E S S E S S   E S S E S S E S S E E
|-------------------------|-----------------------|
|-------------------------|-----------------------|
|-------------------------|-----------------------|
|-4-----3-----0-----4-----|-3-----0-----4-----3---|
|-3-0-0-2-0-0-0-0-0-3-0-0-|-2-0-0-0-0-0-3-0-0-2---|
|-4-0-0-3-0-0-0-0-0-4-0-0-|-3-0-0-0-0-0-4-0-0-3-0-|


     PM----|      PM----|    PM|
  Q  E E E E Q    E E E E Q  E E
|---------------|----------------|
|---------------|----------------|
|---------------|----------------|
|---------------|----------------|
|-4--0-0-0-0----|-0-0-0-0----0-0-|
|----0-0-0-0----|-0-0-0-0----0-0-|


    PM|   PM|   PM|   PM|     PM|   PM|   PM|
  E S S E S S E S S E S S   E S S E S S E S S E E
|-------------------------|-------------------------||
|-------------------------|------------------------o||
|-------------------------|-------------------------||
|-4-----3-----0-----4-----|-3-----0-----4-----3-----||
|-3-0-0-2-0-0-0-0-0-3-0-0-|-2-0-0-0-0-0-3-0-0-2----o||
|-4-0-0-3-0-0-0-0-0-4-0-0-|-3-0-0-0-0-0-4-0-0-3-0---||


 Verse
  Faster Q=205
  N.C.D5N.D5      N.C.D5N.D5    N.C.D5N.D5    N.C.D5N.D5
 3/4
  Gtrs I, II
  PM--------------------------------------|
  E E E E E E     E E E E E E   E E E E E E   E E E E Q
|-------------||--------------|-------------|------------|
|-------------||o-------------|-------------|------------|
|-------------||--------------|-------------|------------|
|-------------||--------------|-------------|-4-3---3-0--|
|-3-2-0-2-0-0-||o-3-2-0-2-0-0-|-3-2-0-2-0-0-|-3-2-0-2-0--|
|-4-3-0-3-0-0-||--4-3-0-3-0-0-|-4-3-0-3-0-0-|-4-3-0-3-0--|


  N.C.D5N.D5   N.C.D5N.C.    D5N.D5 N.C.
                                           4/4
                                            TP TP TP  ~~~
  E E E E Q    E E E E E E   E E Q  E E     Q  Q  Q   Q
|------------|-------------|-------------||----------------|
|------------|-------------|------------o||----------------|
|------------|-------------|-------------||----------------|
|-4-3---3-0--|-4-3---3-4-3-|---3-0--4-3--||-3--------------|
|-3-2-0-2-0--|-3-2-0-2-3-2-|-0-2-0--3-2-o||----4--0--[6]---|
|-4-3-0-3-0--|-4-3-0-3-4-3-|-0-3-0--4-3--||----------------|


  N.C.D5N.D5   N.C.D5N.D5   N.C.D5N.C.    D5N.D5 N.C.
 3/4
  E E E E Q    E E E E Q    E E E E E E   E E Q  E E
|------------|------------|-------------|------------|
|------------|------------|-------------|------------|
|------------|------------|-------------|------------|
|-4-3---3-0--|-4-3---3-0--|-4-3---3-4-3-|---3-0--4-3-|
|-3-2-0-2-0--|-3-2-0-2-0--|-3-2-0-2-3-2-|-0-2-0--3-2-|
|-4-3-0-3-0--|-4-3-0-3-0--|-4-3-0-3-4-3-|-0-3-0--4-3-|


      D5N.D5    N.C.D5N.D5    N.C.D5N.D5    N.C.D5N.D5
  PM--------------------------------------------------|
  E E E E E E   E E E E E E   E E E E E E   E E E E E E
|-------------|-------------|-------------|-------------||
|-------------|-------------|-------------|-------------||
|-------------|-------------|-------------|-------------||
|-------------|-------------|-------------|-------------||
|-3-2-0-2-0-0-|-3-2-0-2-0-0-|-3-2-0-2-0-0-|-3-2-0-2-0-0-||
|-4-3-0-3-0-0-|-4-3-0-3-0-0-|-4-3-0-3-0-0-|-4-3-0-3-0-0-||


   Slower Q=150
   N.C.   D5
  4/4
   Gtr I
    W                W
||-----------------|----------------||
||-----------------|----------------||
||-----------------|----------------||
||-----------------|----------------||
||-----------------|----------------||
||-----------------|----------------||
|
|  Gtr II
|   ~~~ PM----|      PM----|    PM|
|   Q   E E E E Q    E E E E Q  E E
||-----------------|----------------||
||-----------------|----------------||
||-----------------|----------------||
||-----------------|----------------||
||-[4]--0-0-0-0----|-0-0-0-0----0-0-||
||------0-0-0-0----|-0-0-0-0----0-0-||


   Verse
    Faster Q=230
    N.C.
   7/8                                             9/8
    Gtrs I, II
    E E E E E E E   E E E E E E E   E E E E E E E   E E E E E E E Q
||----------------|---------------|---------------|-------------------||
||o---------------|---------------|---------------|------------------o||
||----------------|---------------|---------------|-------------------||
||----------3-----|---------3-----|---------3-----|---------3---------||
||o-----------4p0-|-----------4p0-|-----------4p0-|-----------4p0-4--o||
||--6p0-7p0-------|-6p0-7p0-------|-7p0-7p0-------|-6p0-7p0-----------||


   Slower Q=150
   D5                 N.C.
  3/4
   Gtr I
   PM----|      PM--|  ~~~
   E E E E Q    E E E  Q.
||------------|-------------||
||------------|-------------||
||------------|-------------||
||------------|-------[6]---||
||-0-0-0-0----|-0-0-0-------||
||-0-0-0-0----|-0-0-0-------||
|
|  Gtr II
|  PM----|      PM--|  ~~~
|  E E E E Q    E E E  Q.
||------------|-------------||
||------------|-------------||
||------------|-------------||
||------------|-------------||
||-0-0-0-0----|-0-0-0-------||
||-0-0-0-0----|-0-0-0-[6]---||


 Breakdown
  D5
  Gtrs I, II
  PM----|      PM----|      PM----|      PM----|
  E E E E Q    E E E E Q    E E E E Q    E E E E Q
|------------|------------|------------|------------|
|------------|------------|------------|------------|
|------------|------------|------------|------------|
|------------|------------|------------|------------|
|-0-0-0-0----|-0-0-0-0----|-0-0-0-0----|-0-0-0-0----|
|-0-0-0-0----|-0-0-0-0----|-0-0-0-0----|-0-0-0-0----|


  PM----|
  E E E E Q    W
|------------:------*|
|------------:------*|
|------------:------*|
|------------:------*|
|-0-0-0-0----:------*|
|-0-0-0-0----:------*|


Duration Legend
---------------
W - whole; H - half; Q - quarter; E - 8th; S - 16th; T - 32nd; X - 64th; a - acciaccatura
+ - note tied to previous; . - note dotted; .. - note double dotted
Uncapitalized letters represent notes that are staccato (1/2 duration)
Irregular groupings are notated above the duration line
Duration letters will always appear directly above the note/fret number it represents the
duration for.  Duration letters with no fret number below them represent rests.  Multi-
bar rests are notated in the form Wxn, where n is the number of bars to rest for.  Low
melody durations appear below the staff

Tablature Legend
----------------
 h   - hammer-on
 p   - pull-off
 b   - bend
 pb  - pre-bend
 r   - bend release (if no number after the r, then release immediately)
 /\  - slide into or out of (from/to "nowhere")
 s   - legato slide
 S   - shift slide
  - natural harmonic
[n]  - artificial harmonic
n(n) - tapped harmonic
 ~   - vibrato
 tr  - trill
 T   - tap
 TP  - trem. picking
 PM  - palm muting
\n/  - tremolo bar dip; n = amount to dip
 \n  - tremolo bar down
 n/  - tremolo bar up
/n\  - tremolo bar inverted dip
 =   - hold bend; also acts as connecting device for hammers/pulls
 <>  - volume swell (louder/softer)
 x   - on rhythm slash represents muted slash
 o   - on rhythm slash represents single note slash

Misc Legend
-----------
 |  - bar
||  - double bar
||o - repeat start
o|| - repeat end
*|  - double bar (ending)
 :  - bar (freetime)
 $  - Segno
 &  - Coda
Tempo markers -  = BPM(8/16=s8/s16), where s8 = swing 8ths, s16 = swing 16ths


Добавлено: 04.04.2012
Другие материалы по этой песне:

Страница создана 24.03.2012
http://primanota.ru/every-time-i-die/romeo-a-go-go-chords.htm
Привет, Гость.
Предлагаем пройти революционный курс по гитаре.
Подарок от PrimaNota.Ru, забирай!