PrimaNota.ru - самый крупный в мире бесплатный архив песенных текстов, аккордов, табулатур и нот


Every Time I Die - Revival Mode - таба, видео

Регистрация Запомнить меня
Войти через:  Facebook Google Twitter Vk Yandex Mail.ru

Every Time I Die - Revival Mode - таба, видео

Печатать
Просмотров: 141
-------------------------------------------------------------------
                                Every Time I Die - Revival Mode
-------------------------------------------------------------------

Tabbed by: Aaron Bevacqua
swnkylaxplyr@embarqmail.com

Drop D

Intro
--------------------------------------|
----------------------------7~~~~~~~~-|
-----------------6-6~-6-8-9-10(11)10~-|
-------9------------------------------| bend 10 to 11 and back down
-6-6-----6-6--------------------------|
-6---6-------8-9----------------------|

--------------------------------------|
--------------------------------------|
--------------------------------------|
-------9------------------------------|
-6-6-----6-6-4-4---------------8------|
-6---6-----------6-5~-5-6-8/9~---9-7~-|

--------------------------------------|
----------------------------7~~~~~~~~-|
-----------------6-6~-6-8-9-10(11)10~-|
-------9------------------------------| bend 10 to 11 and back down
-6-6-----6-6--------------------------|
-6---6-------8-9----------------------|

--------------------------------------|
--------------------------------------|
--------------------------------------|
-------9-----------------------10-----|
-6-6-----6-6-4-4------5-6-8/9--8-9-7~-|
-6---6-----------6-5~-5-6-8/9~---9-7~-|

Verse
----------------------------------------|
----------------------------------------|
----------------------------------------|
----------------------------------------|
-6-6-6-6-6-6-6-6-6/10-10-10-10-10/9-9-9-|
-6-6-6-6-6-6-6-6-6/10-10-10-10-10/9-9-9-|

----------------------------------|
----------------------------------|
----------------------------------|
-----------------8/9-12-12-9-9/11-|
-6-6-6-6-6-6-6-6-6/7-10-10-7-7/9--|
-6-6-6-6-6-6-6-6------------------|

----------------------------------------|
----------------------------------------|
----------------------------------------|
----------------------------------------|
-6-6-6-6-6-6-6-6-6/10-10-10-10-10/9-9-9-|
-6-6-6-6-6-6-6-6-6/10-10-10-10-10/9-9-9-|

-------------------------------------|
-------------------------------------|
-------------------------------------|
-------------------------------------|
-6-6-6-6-6-6-6-6-6-0--------6-10-7-9-|
-6-6-6-6-6-6-6-6-6-0-6-10-9----------|
                   .

Chorus - Same as Intro

Verse

After Verse 4x
-------------------|
-------------------|
-------------------|
-------------------|
-0--------6-10-7-9-|
-0-6-10-9----------|
 .

Bridge - Kind of ran out of steam at this point, so this may not be as accurate, but 
sounds close to me
----------------------------------|
----------------------------------|
-8~8~-----------------------------|
-8~8~-----------------------------|
-6~6~-6-10/9-9~-6-6-9-9~-6-6-9-9~-|
------6-10/9-9~-6-6-9-9~-6-6-9-9~-|

Changes to while the lead guitar noodles
---------------------------------|
---------------------------------|
-3~3~----------------------------|
-3~3~----------------------------|
-1~1~-1-5/4-4~-1-1-4-4~-1-1-4-4~-|
------1-5/4-4~-1-1-4-4~-1-1-4-4~-|

Outro - Same as Intro
Добавлено: 27.09.2013
Другие материалы по этой песне:

Страница создана 27.06.2013
http://primanota.ru/every-time-i-die/revival-mode-chords.htm
Привет, Гость.
Предлагаем пройти революционный курс по гитаре.
Подарок от PrimaNota.Ru, забирай!