PrimaNota.ru - самый крупный в мире бесплатный архив песенных текстов, аккордов, табулатур и нот


Every Time I Die - Rebel Without Applause - текст песни, таба, видео

Регистрация Запомнить меня
Войти через:  Facebook Google Twitter Vk Yandex Mail.ru

Every Time I Die - Rebel Without Applause - текст песни, таба, видео

Печатать
Просмотров: 127
Уроки эстрадного вокала в Санкт-Петербурге
-------------------------------------------------------------------------------
                             Rebel Without Applause - Every Time I Die
-------------------------------------------------------------------------------
Tabbed by:ibanez_uchiha

Tuning:Drop D

Figured this one out a few weeks ago and finally decided to tab it
one of the best songs off of The Big Dirty.
Slides in the verse are spaced so they're easier to read.

Guitar One.

e|--0-(0)-~----------------------------------|
B|--0-(0)-~----------------------------------|
G|--0-(0)-~----------------------------------|
D|--0-(0)-~--/-x-x---------------------------|
A|--0-(0)-~--/-x-x---------------------------|
D|--0-(0)-~----------------------------------|

Guitar Two.

e|-------------------------------------------|
B|-------------------------------------------|
G|-[Feedback]--------------------------------|
D|-------------------------------------------|
A|-------------------------------------------|
D|-------------------------------------------|

Verse
00:05
e|------------------------------------------------------------|
B|------------------------------------------------------------|
G|------------------------------------------------------------|
D|---6---3-3-3-3-3-3-----6---3-6---3-3-3-3--------------------|
A|---4-2-1-1-1-1-1-1-5---4-2-1-4-2-1-1-1-1--------------------|
D|-----2-------------5-----2-----2----------5-5/8\5\2\8/5/2---|
           . .   . .                 . .


e|------------------------------------------------------------|
B|------------------------------------------------------------|
G|------------------------------------------------------------|
D|---6---3-3-3-3-3-3-----6---3-6---3-3-3-3--------------------|
A|---4-2-1-1-1-1-1-1-5---4-2-1-4-2-1-1-1-1--------------------|
D|-----2-------------5-----2-----2----------5-5/8\5\2\8/5/2---|
           . .   . .                 . .


e|------------------------------------------------------------|
B|------------------------------------------------------------|
G|------------------------------------------------------------|
D|---6---3-3-3-3-3-3-----6---3-6---3-3-3-3--------------------|
A|---4-2-1-1-1-1-1-1-5---4-2-1-4-2-1-1-1-1--------------------|
D|-----2-------------5-----2-----2----------5-5/8\5\2\8/5/2---|
           . .   . .                 . .


e|-------------------------------------------------------------------|
B|-------------------------------------------------------------------|
G|--------------------------------------------------------------10---|
D|---6---3-3-3-3-3-3-----6---3-6---3-3-3-3----------------------8----|
A|---4-2-1-1-1-1-1-1-5---4-2-1-4-2-1-1-1-1----------------------8----|
D|-----2-------------5-----2-----2----------5-5/8\5\2\8/5/2--8~-8----|
           . .   . .                 . .

Break-Build Up.
00:28

e|---------------------------------------------------|
B|---------------------------------------------------|
G|---------------------------------------------------|
D|-8-5------------------8-5--------------------------|
A|-8-5--2-2/8-5-2/8-5-2-8-5--2-2/8-5-2/8-------------|
D|-8-5--2-2/8-5-2/8-5-2-8-5--2-2/8-5-2/8-------------|


e|---------------------------------------------------|
B|---------------------------------------------------|
G|---------------------------------------------------|
D|-8-5------------------8-5--------------------------|
A|-8-5--2-2/8-5-2/8-5-2-8-5--2-2/8-5-2/8-------------|
D|-8-5--2-2/8-5-2/8-5-2-8-5--2-2/8-5-2/8-------------|


00:40

e|-------------------------------------0~--------------------------|
B|-------------------------------------0~--------------------------|
G|---8~-------8~---------------8~------8~--------------------------|
D|---8~-------8~---------------8~------8~--------------------------|
A|---6~-------6~---8-5-2-2/8---6~------6~---8-5-2-2/8--------------|
D|-----------------8-5-2-2/8----------------8-5-2-2/8--------------|


Breakdown
00:51

e|------------------------------------------------------------------|
B|------------------------------------------------------------------|
G|-9-------------9-9---------------9--------------------------------|
D|-8-------------8-8---------------8--------------------------------|
A|-7-0-0-0-0-0-0-7-7-0-0-0-000-000-7-0-0-0-0-0-0-0-8-5-2-2/8--------|
D|---0-0-0-0-0-0-----0-0-0-000-000---0-0-0-0-0-0-0-8-5-2-2/8--------|
     . . . . . .     . . . ... ...   . . . . . . .

e|----------------------------------------------------------------------|
B|----------------------------------------------------------------------|
G|-9-------------9-9---------------9--------------------------8~---8--8-|
D|-8-------------8-8---------------8--------------------------8~---8--8-|
A|-7-0-0-0-0-0-0-7-7-0-0-0-000-000-7-0-0-0-0-0-0-0-8-5-2-2/8--6~---6--6-|
D|---0-0-0-0-0-0-----0-0-0-000-000---0-0-0-0-0-0-0-8-5-2-2/8------------|
     . . . . . .     . . . ... ...   . . . . . . .

e|-----------------------------------------|
B|-----------------------------------------|
G|-----------------------------------------|
D|--0-(0)---------/-x-x--------------------|
A|--0-(0)---------/-x-x--------------------|
D|--0-(0)----------------------------------|


Second Verse
1:12

e|------------------------------------------------------------|
B|------------------------------------------------------------|
G|------------------------------------------------------------|
D|---6---3-3-3-3-3-3-----6---3-6---3-3-3-3--------------------|
A|---4-2-1-1-1-1-1-1-5---4-2-1-4-2-1-1-1-1--------------------|
D|-----2-------------5-----2-----2----------5-5/8\5\2\8/5/2---|
           . .   . .                 . .


e|------------------------------------------------------------|
B|------------------------------------------------------------|
G|------------------------------------------------------------|
D|---6---3-3-3-3-3-3-----6---3-6---3-3-3-3--------------------|
A|---4-2-1-1-1-1-1-1-5---4-2-1-4-2-1-1-1-1--------------------|
D|-----2-------------5-----2-----2----------5-5/8\5\2\8/5/2---|
           . .   . .                 . .


e|------------------------------------------------------------|
B|------------------------------------------------------------|
G|------------------------------------------------------------|
D|---6---3-3-3-3-3-3-----6---3-6---3-3-3-3--------------------|
A|---4-2-1-1-1-1-1-1-5---4-2-1-4-2-1-1-1-1--------------------|
D|-----2-------------5-----2-----2----------5-5/8\5\2\8/5/2---|
           . .   . .                 . .


e|-------------------------------------------------------------------|
B|-------------------------------------------------------------------|
G|-------------------------------------------------------------------|
D|---6---3-3-3-3-3-3-----6---3-6---3-3-3-3----------------------8----|
A|---4-2-1-1-1-1-1-1-5---4-2-1-4-2-1-1-1-1----------------------8----|
D|-----2-------------5-----2-----2----------5-5/8\5\2\8/5/2--8~-8----|
           . .   . .                 . .


Break-Build Up.
1:34

e|---------------------------------------------------|
B|---------------------------------------------------|
G|---------------------------------------------------|
D|-8-5------------------8-5--------------------------|
A|-8-5--2-2/8-5-2/8-5-2-8-5--2-2/8-5-2/8-------------|
D|-8-5--2-2/8-5-2/8-5-2-8-5--2-2/8-5-2/8-------------|


e|---------------------------------------------------|
B|---------------------------------------------------|
G|---------------------------------------------------|
D|-8-5------------------8-5--------------------------|
A|-8-5--2-2/8-5-2/8-5-2-8-5--2-2/8-5-2/8-------------|
D|-8-5--2-2/8-5-2/8-5-2-8-5--2-2/8-5-2/8-------------|


1:46
e|-----------------------------------------|
B|-----------------------------------------|
G|--8~-------------------------------------|
D|--8~-------/-x-x-------------------------|
A|--6~-------/-x-x-------------------------|
D|-----------------------------------------|

1:49
e|----------------------------------------------------------------------|
B|----------------------------------------------------------------------|
G|----------------------------------------------------------------------|
D|----------------------------------------------------------------------|
A|-8-8-x-x-x-5-5-x-x-x-8-8-x-x-x-5-5--8-8-x-x-x-5-5-x-x-x-8-5-2-2/8-----|
D|-8-8-x-x-x-5-5-x-x-x-8-8-x-x-x-5-5--8-8-x-x-x-5-5-x-x-x-8-5-2-2/8-----|

e|----------------------------------------------------------------------|
B|----------------------------------------------------------------------|
G|----------------------------------------------------------------------|
D|----------------------------------------------------------------------|
A|-8-8-x-x-x-5-5-x-x-x-8-8-x-x-x-5-5--8-8-x-x-x-5-5-x-x-x-8-5-2-2/8-----|
D|-8-8-x-x-x-5-5-x-x-x-8-8-x-x-x-5-5---8-8-x-x-x-5-5-x-x-x-8-5-2-2/8----|


2:02
e|--------------------------------------------------------------------|
B|--------------------------------------------------------------------|
G|-------------------8-8--------------------8-8-------------------8-8-|
D|-------------------8-8--------------------8-8-------------------8-8-|
A|-11p8p0-----8p5p0--6-6--11p8p0-----8p5p0--6-6--11p8p0----8p5p0--6-6-|
D|--------7h8--------------------7h8--------------------7h8-----------|

------------------------------------------|
------------------------------------------|
-----------------------------------8-8----|
-----------------------------------8-8----|
-------------------11p8p0---8p5p0--6-6----|
3h5h6-5h6h7-6h7h8--------7h8--------------|


 2:14
e|----------------------------------------------------------------------|
B|----------------------------------------------------------------------|
G|----------------------------------------------------------------------|
D|----------------------------------------------------------------------|
A|-8-8-x-x-x-5-5-x-x-x-8-8-x-x-x-5-5---8-8-x-x-x-5-5-x-x-x-8-5-2-2/8----|
D|-8-8-x-x-x-5-5-x-x-x-8-8-x-x-x-5-5---8-8-x-x-x-5-5-x-x-x-8-5-2-2/8----|

e|----------------------------------------------------------------------|
B|----------------------------------------------------------------------|
G|----------------------------------------------------------------------|
D|----------------------------------------------------------------------|
A|-8-8-x-x-x-5-5-x-x-x-8-8-x-x-x-5-5---8-8-x-x-x-5-5-x-x-x-8-5-2-2/8----|
D|-8-8-x-x-x-5-5-x-x-x-8-8-x-x-x-5-5---8-8-x-x-x-5-5-x-x-x-8-5-2-2/8----|

2:30
e|-------------------------------------0~--------------------------|
B|-------------------------------------0~--------------------------|
G|---8~-------8~---------------8~------8~--------------------------|
D|---8~-------8~---------------8~------8~--------------------------|
A|---6~-------6~---8-5-2-2/8---6~------6~---8-5-2-2/8--------------|
D|-----------------8-5-2-2/8----------------8-5-2-2/8--------------|


2:42
e|------------------------------------------------------------------|
B|------------------------------------------------------------------|
G|-9-------------9-9---------------9--------------------------------|
D|-8-------------8-8---------------8--------------------------------|
A|-7-0-0-0-0-0-0-7-7-0-0-0-000-000-7-0-0-0-0-0-0-0-8-5-2-2/8--------|
D|---0-0-0-0-0-0-----0-0-0-000-000---0-0-0-0-0-0-0-8-5-2-2/8--------|
     . . . . . .     . . . ... ...   . . . . . . .

e|----------------------------------------------------------------------|
B|----------------------------------------------------------------------|
G|-9-------------9-9---------------9--------------------------8~---8--8-|
D|-8-------------8-8---------------8--------------------------8~---8--8-|
A|-7-0-0-0-0-0-0-7-7-0-0-0-000-000-7-0-0-0-0-0-0-0-8-5-2-2/8--6~---6--6-|
D|---0-0-0-0-0-0-----0-0-0-000-000---0-0-0-0-0-0-0-8-5-2-2/8------------|
     . . . . . .     . . . ... ...   . . . . . . .

2:55

e|------------------------------------------------------------------|
B|------------------------------------------------------------------|
G|-9-9-----9-9-9-9-----------9-9-----9-9-9-9-----------9-9----------|
D|-8-8-----8-8-8-8-----------8-8-----8-8-8-8-----------8-8----------|
A|-7-7-2-2-7-7-7-7-22-2-22-2-7-7-2-2-7-7-7-7-22-2-22-2-7-7----------|
D|-----2-2---------22-2-22-2-----2-2---------22-2-22-2--------------|
       .           ..   ..       .           ..   ..

e|------------------------------------------------------------------|
B|------------------------------------------------------------------|
G|-9-9-----9-9-9-9-----------9-9-----9-9-9-9-----------9-9----------|
D|-8-8-----8-8-8-8-----------8-8-----8-8-8-8-----------8-8----------|
A|-7-7-2-2-7-7-7-7-22-2-22-2-7-7-2-2-7-7-7-7-22-2-22-2-7-7----------|
D|-----2-2---------22-2-22-2-----2-2---------22-2-22-2--------------|
       .           ..   ..       .           ..   ..


e|------------------------------------------------------------------|
B|------------------------------------------------------------------|
G|-9-9-----9-9-9-9-----------9-9-----9-9-9-9-----------9-9----------|
D|-8-8-----8-8-8-8-----------8-8-----8-8-8-8-----------8-8----------|
A|-7-7-2-2-7-7-7-7-22-2-22-2-7-7-2-2-7-7-7-7-22-2-22-2-7-7----------|
D|-----2-2---------22-2-22-2-----2-2---------22-2-22-2--------------|
       .           ..   ..       .           ..   ..


e|----------------------------------------------------------------|
B|----------------------------------------------------------------|
G|-9-9-----9-9-9-9-----------9-9-----9-9-9-9----------------------|
D|-8-8-----8-8-8-8-----------8-8-----8-8-8-8----------------------|
A|-7-7-2-2-7-7-7-7-22-2-22-2-7-7-2-2-7-7-7-7-22-2-22-2------------|
D|-----2-2---------22-2-22-2-----2-2---------22-2-22-2------------|
       .           ..   ..       .           ..   ..
| /  slide up
| \  slide down
| h  hammer-on
| p  pull-off
| ~  vibrato
| +  harmonic
| x  Mute note
===============================================================================
Добавлено: 06.07.2012
Другие материалы по этой песне:
  • Аккорды и текст

Страница создана 06.07.2012
http://primanota.ru/every-time-i-die/rebel-without-applause-chords.htm
Привет, Гость.
Предлагаем пройти революционный курс по гитаре.
Подарок от PrimaNota.Ru, забирай!