PrimaNota.ru - самый крупный в мире бесплатный архив песенных текстов, аккордов, табулатур и нот


Every Time I Die - Pretty Dirty - текст песни, таба, видео

Регистрация Запомнить меня
Войти через:  Facebook Google Twitter Vk Yandex Mail.ru

Every Time I Die - Pretty Dirty - текст песни, таба, видео

Печатать
Просмотров: 127
-----------------------------------------------------------------------------
                          Every Time I Die - Pretty Dirty
-----------------------------------------------------------------------------
Tabbed by: {ledzepfan203}
Email: spaniard203@aol.com

Tuning: DADGBe

my very first tab is a pretty fun song to play by ETID that appears waaaay at the end of
album "Gutter Phenomenon".  unfortunately, those songs at the end of albums usually go
as far as tabs go... any (positive) feedback/corrections are welcome. the timing is all 
but if you listen to the song enough, you'll know how it goes. here we go then.

e|--------------------------------------------------------------------------|
B|--------------------------------------------------------------------------|
G|-3------3---6--3------3---6--3--------------------------------------------|
D|-3---0--3---6--3---0--3---6--3---0----------------------------------------|
A|-1---0--1-0-4--1---0--1-0-4--1---0----------------------------------------|
D|---3-0-----------3-0-----------3-0----------------------------------------|

e|--------------------------------------------------------------------------|
B|--------------------------------------------------------------------------|
G|---------------------------------------------------6----------------------|
D|---------------------------------------------------6----------------------|
A|---0---0-----0---0-----0--1---0----0---0-1---0-1-0-4--1---0---(repeat)----|
D|-0-0-0-0-0-0-0-0-0-0-0-0----3-0--0-0-0-0---3-0----------3-0---------------|

e|-----------------|
B|-----------------|
G|-----6-----------|
D|-----6------0----|
A|-1-0-4--1---0----|
D|----------3-0----|

e|--------------------------------------------------------------------------|
B|*-------------------------------------------------------------------------|
G|*----------------------------------------6~~~~~~~~~-----------------------|
D|----------------------0------------------6~~~~~~~~~------0----------------|
A|*-----------------1---0------------1-0-1-4~~~~~~~~~--1---0----------------|
D|*-0001p0-0000000----3-0--0001p0-00---------------------3-0----------------|

e|--------------------------------------------------------------------------|
B|-------------------------------------------------------------------------*|
G|-------------------------------------------------------------------------*|
D|----------------------0-------------------------0-------------------------|
A|------------------1---0------------1-0-1-4--1---0--(repeat with----------*|
D|--0001p0-0000000----3-0--0001p0-00------------3-0-------------riff above)*|

e|--------------------------------------------------------------------------|
B|--------------------------------------------------------------------------|
G|------------6-------------6------6------------6------------6--------------|
D|------------6-------------6------6------------6------------6--------------|
A|-1---0--1-0-4--1---0--1-0-4--1-0-4--0000--1-0-4--0000--1-0-4--0000--------|
D|---3-0-----------3-0----------------0000---------0000---------0000--------|

e|--------------------------------------------------------------------------|
B|--------------------------------------------------------------------------|
G|------------6------6------------6------------6---------------------------6|
D|------------6------6------------6------------6---------------------------6|
A|-1---0--1-0-4--1-0-4--0000--1-0-4--0000--1-0-4--0000--1---0--1-0-4---1-0-4|
D|---3-0----------------0000---------0000---------0000----3-0---------------|

e|--------------------------------------------------------------------------|
B|--------------------------------------------------------------------------|
G|--666666666666666---------------------------------------------------------|
D|--666666666666666-5555555555555-------------------------------------------|
A|--444444444444444-5555555555555--1---0----------------1---0---------------|
D|------------------5555555555555----3-0-0001p0-0000000---3-0-0001p0-00-----|
  "now the hornets..."

e|--------------------------------------------------------------------------|
B|--------------------------------------------------------------------------|
G|--------------6--66666666666666-------------------------------------------|
D|--------------6--66666666666666-5555555555555-----------------------------|
A|-1-0-1-4--1-0-4--44444444444444-5555555555555--1----0---------------------|
D|--------------------------------5555555555555----31-0--0001p0-0000000-----|

e|------------------------------------|
B|------------------------------------|
G|------------------------------------|
D|--------------------------------0---|
A|-1---0-------------1-0-1-4--1---0---|
D|---3-0--0001p0-00-------------3-0---|

e|--------------------------------------------------------------(repeat-----|
B|-------------------------------------------------------------------8------|
G|--------------------------------------------------------------------times)|
D|--------------------------------------------------------------------------|
A|-----000-000---000-000---000-000------000-000------000------1-0-4---------|
D|--0--000-000---000-000---000-000--4b--000-000--4b--000--4b----------------|

e|--------------------------------------------------------------------------|
B|--------------------------------------------------------------------------|
G|---------------------------------6-666666666666666------------------------|
D|---------------------------------6-666666666666666-5555555555555----------|
A|-1---0--1-0-4--1---0--1-0-4--1-0-4-444444444444444-5555555555555--1---0---|
D|---3-0-----------3-0-------------------------------5555555555555----3-0---|
                                     "now the sky is falling..."
e|----------------------------------------------------|
B|----------------------------------------------------|
G|-----------------------------------------------6----|
D|-----------------------------------------------6----|
A|-----------------1---0------------1-0-1-4--1-0-4----|
D|--0001p0-0000000---3-0-0001p0-00--------------------|


e|-------------------------------------------------|
B|-------------------------------------------------|
G|--666666666666666--------------------------------|
D|--666666666666666-5555555555555------------------|
A|--444444444444444-5555555555555--1---0-----------|
D|------------------5555555555555----3-0-----------|
 "you are not listening...."

e|-clap-clap----------------------------------------------------------------|
B|-------clap---------------------------------------------------------------|
G|-----------clap-clap--------------------------------------------repeat----|
D|----------------clap-clap-------------------------------------------------|
A|-----------------------------clap-clap--------1-0-1-4--1----0-------------|
D|---------------------------------------clap--------------3--0-------------|

e|--------------------------------------------------------------------------|
B|--------------------------------------------------------------------------|
G|---------------6--666666666666666-----------------------------------------|
D|---------------6--666666666666666--555555555555---------------------------|
A|--1-0-1-4--1-0-4--444444444444444--555555555555--1----0-------------------|
D|-----------------------------------555555555555----31-0-------------------|

e|--------------------------------------------------------------(repeat-----|
B|-------------------------------------------------------------------4------|
G|--------------------------------------------------------------------times)|
D|--------------------------------------------------------------------------|
A|-----000-000---000-000---000-000------000-000------000------1-0-4---------|
D|--0--000-000---000-000---000-000--4b--000-000--4b--000--4b----------------|


e|--------------------------------------------------------------------------|
B|--------------------------------------------------------------------------|
G|--------------------------------------------------------------------------|
D|----------------------------------------------repeat above----------------|
A|--4--0-0-0-0-0-0-----0-0---0---0-0--1-0-4---------------then this---------|
D|-----0-0-0-0-0-0--4--0-0-4-0-4-0-0-----------------------------again------|

e|----------------------------------------------------------------------------|
B|----------------------------------------------------------------------------|
G|----------------------------------------------------------------------------|
D|----------------------------------------------------------------------------|
A|--0-0----0-0----------------------------------------------------------------|
D|--0-0----0-0----------------------------------------------------------------|


and thats it! lemme know what you think.


| /  slide up
| \  slide down
| h  hammer-on
| p  pull-off
| ~  vibrato
| +  harmonic
| x  Mute note
===============================================================================
Добавлено: 07.03.2012
Другие материалы по этой песне:
  • Аккорды и текст

Страница создана 07.03.2012
http://primanota.ru/every-time-i-die/pretty-dirty-chords.htm
Привет, Гость.
Предлагаем пройти революционный курс по гитаре.
Подарок от PrimaNota.Ru, забирай!