PrimaNota.ru - самый крупный в мире бесплатный архив песенных текстов, аккордов, табулатур и нот


Every Time I Die - Pornogratherapy - таба, видео

Регистрация Запомнить меня
Войти через:  Facebook Google Twitter Vk Yandex Mail.ru

Every Time I Die - Pornogratherapy - таба, видео

Печатать
Просмотров: 104
Уроки эстрадного вокала в Санкт-Петербурге
Artist: Every Time I Die
Song: Pornogratherapy
Album: Hot Damn!
Tabbed by: Dewey Raposo a.k.a. kdcisgod
Email: kdcisgod@cox.net
Tuning: Dropped D
Notes: There's no tab for this one so here you go.
...oh, and I don't really know what to name all the parts to this song.

Intro:
E|--------------------------------|
B|------3-3-------5-3-------4-0-3-|
G|------6-6-----------4-0-3-------|
D|--------------------------------|
A|0-0-0-----0-0-0-----------------|
D|0-0-0-----0-0-0-----------------|
  . . .     . . .

“Tonight the cinema's...”
E|--------------------------------|
B|--------------------0-3-------4-|
G|------------------------4-0-3---|
D|--------------------------------|
A|0-0-0-0-0-0-0-0-0-0-------------|
D|0-0-0-0-0-0-0-0-0-0-------------|
  . . . . . . . . . .

E|--------------------------------|
B|------3-3-------5-3-------4-0-3-|
G|------6-6-----------4-0-3-------|
D|--------------------------------|
A|0-0-0-----0-0-0-----------------|
D|0-0-0-----0-0-0-----------------|
  . . .     . . .

E|----------------------|
B|------3-3-------play--|
G|------6-6-------four--|
D|----------------times-|
A|0-0-0-----0-0-0-------|
D|0-0-0-----0-0-0-------|

“And I promise we'll behave...”
E|---------------------|
B|3---3---3------3--3--|
G|6-666-666------6--6--|
D|--A bunch------------|
A|---of----------------|
D|--times, then--------|
    ..  ..
“We'll sing the glory of the gospel...”
E|------------------------------------------------|
B|------------------------------------------------|
G|6-6-6-6-6-6-6-6-6-6-6-6-5-5-5-5-5-5-5-5-5-5-5-5-|
D|x-x-x-x-x-x-x-x-x-x-x-x-x-x-x-x-x-x-x-x-x-x-x-x-|
A|4-4-4-4-4-4-4-4-4-4-4-4-4-4-4-4-4-4-4-4-4-4-4-4-|
D|------------------------------------------------|
 (1st/3rd endings)         (2nd/4th endings)
E|------------------------|------------------------|
B|5-3-------4-5-3-------4-|5-3-------4----play-----|
G|----4-0-3-------4-0-3---|----4-0-3------twice----|
D|----------play----------|------------------------|
A|----------twice---------|------------0-0-0-0-0-0-|
D|------------------------|------------0-0-0-0-0-0-|
                                       . . . . . .

“The virgin and the fire.”
E|-------------------------|
B|5-3-------4--------------|
G|----4-0-3----------------|play
D|-------------------------|twice
A|-------------0-0-0-0-0-0-|
D|-------------0-0-0-0-0-0-|
               . . . . . .
“Up to her neck”
E|------------------------|
B|------------------------|
G|----feed----------------|play
D|----back----------------|twice
A|------------0-0-0-0-0-0-|
D|------------0-0-0-0-0-0-|

E|------------|
B|5-3-------4-|
G|----4-0-3---|
D|------------|
A|----three---|
D|----times---|

“Lovely, so lovely”
E|-----------------------|
B|----Play four times----|
G|-----------------------|
D|2-0--------------------|
A|----------5---5------5-|
D|----9-0-7---0---9-0-7--|

“Pumped through the mud”
E|------------------------|
B|---------Twice----------|
G|------------------------|
D|2-0---------------------|
A|----9-0-7/5-0-5-9-0-7/5-|
D|----9-0-7/5-----9-0-7/5-|

“The saints in regalia”
E|--------------------------------|
B|------3-3-------5-3-------4-0-3-|
G|------6-6-----------4-0-3-------|
D|--------------------------------|
A|0-0-0-----0-0-0-----------------|
D|0-0-0-----0-0-0-----------------|
  . . .     . . .

E|--------------------------------|
B|------3-3-----------0-3-------4-|
G|------6-6---------------4-0-3---|
D|--------------------------------|
A|0-0-0-----0-0-0-0-0-------------|
D|0-0-0-----0-0-0-0-0-------------|
  . . .     . . . . .

E|--------------------------------|
B|------3-3-------5-3-------4-0-3-|
G|------6-6-----------4-0-3-------|
D|--------------------------------|
A|0-0-0-----0-0-0-----------------|
D|0-0-0-----0-0-0-----------------|
  . . .     . . .

“Lift up her skirt”
E|---Play Twice---|----------------|----------------|
B|------3-3-------|------3-3-----3-|3---4-7-7-4-4-3-|
G|------6-6-------|------6-6-----6-|6-6-6-6-6-6-6-6-|
D|----------------|----------------|----------------|
A|0-0-0-----0-0-0-|0-0-0-----0-0---|----------------|
D|0-0-0-----0-0-0-|0-0-0-----0-0---|----------------|
  . . .     . . .  . . .     . .

E|----------------|----------------|
B|3-----3-3-----3-|3---4-7-7-4-4-3-|play
G|6-----6-6-----6-|6-6-6-6-6-6-6-6-|this
D|----------------|----------------|four
A|--0-0-----0-0---|----------------|times
D|--0-0-----0-0---|----------------|

E|----------------|
B|3-----3-3-----3-|
G|6-----6-6-----6-|Sixteen
D|----------------|times
A|--0-0-----0-0---|
D|--0-0-----0-0---|

E|---------------------------------|
B|33333333-----------------3---3---|
G|--------444444443333333333333333-|
D|---------------------------------|
A|---------------------------------|
D|---------------------------------|
                  (gradually bend)
E|-------------------------------|
B|33333333-----------------------|
G|--------44444444333333333333333|
D|-------------------------------|
A|-------------------------------|
D|-------------------------------|

E|--------------------------------------------|
B|3-3-----3-3-3-3-----3-3-----3-3-3-3-3-3-----|
G|6-6-----6-6-6-6-----6-6-----6-6-6-6-6-6-----|Play
D|--------------------------------------------|twice
A|----0-0---------0-0-----0-0-------------0-0-|
D|----0-0---------0-0-----0-0-------------0-0-|
      . .         . .     . .             . .

E|--------------------------------------|
B|3-3-----3-3-3-3-----3-3-----3-3-3-3-3-|
G|6-6-----6-6-6-6-----6-6-----6-6-6-6-6-|
D|--------------------------------------|
A|----0-0---------0-0-----0-0-----------|
D|----0-0---------0-0-----0-0-----------|
      . .         . .     . .

“She said you might be sick”
E|----------------------------------------------------------------|
B|----------------------------------------------------------------|
G|6-6-6-6-6-6-6-6-5-5-5-5-5-5-5-5-9-9-9-9-9-9-9-9-9-9-9-9-9-9-9-9-|Play
D|x-x-x-x-x-x-x-x-x-x-x-x-x-x-x-x-x-x-x-x-x-x-x-x-x-x-x-x-x-x-x-x-|2x
A|4-4-4-4-4-4-4-4-4-4-4-4-4-4-4-4-7-7-7-7-7-7-7-7-7-7-7-7-7-7-7-7-|
D|----------------------------------------------------------------|

E|---------------------------------------------------------------|
B|--------------------------------0-3-------4-0-3------4-0-3-----|
G|6-6-6-6-6-6-6-6-5-5-5-5-5-5-5-5-----4-0-3-------4-0-3------4-0-|
D|x-x-x-x-x-x-x-x-x-x-x-x-x-x-x-x--------------------------------|
A|4-4-4-4-4-4-4-4-4-4-4-4-4-4-4-4--------------------------------|
D|---------------------------------------------------------------|

E|----------------------------------------------------------------|
B|----------------------------------------------------------------|
G|6-6-6-6-6-6-6-6-5-5-5-5-5-5-5-5-9-9-9-9-9-9-9-9-9-9-9-9-9-9-9-9-|
D|x-x-x-x-x-x-x-x-x-x-x-x-x-x-x-x-x-x-x-x-x-x-x-x-x-x-x-x-x-x-x-x-|
A|4-4-4-4-4-4-4-4-4-4-4-4-4-4-4-4-7-7-7-7-7-7-7-7-7-7-7-7-7-7-7-7-|
D|----------------------------------------------------------------|

“That's enough, turn it off”
E|------------------------------------------|
B|------------------------------------------|
G|------------------------------------------|Play
D|14-0-9-0-7-5-----14-0-9-0-7-5-------------|twice
A|14-0-9-0-7-5-----14-0-9-0-7-5-0-0-0-0-0-0-|
D|14-0-9-0-7-5-----14-0-9-0-7-5-0-0-0-0-0-0-|
                                . . . . . .

E|----Seven----|
B|----times----|
G|-------------|
D|14-0-9-0-7-5-|
A|14-0-9-0-7-5-|
D|14-0-9-0-7-5-|

“Healed at the horror show”
E|---------------------------------------|
B|5-3-------4-5-3-------4-5-3------4-----|
G|----4-0-3-------4-0-3-------4-0-3------|
D|-----------------------------------0---|
A|-----------------------------------0---|
D|-----------------------------------0---|

There you go. That should be pretty close. If not, get over it and do it yourself =D
Добавлено: 01.07.2012
Другие материалы по этой песне:
  • Аккорды и текст

Страница создана 01.07.2012
http://primanota.ru/every-time-i-die/pornogratherapy-chords.htm
Привет, Гость.
Предлагаем пройти революционный курс по гитаре.
Подарок от PrimaNota.Ru, забирай!