PrimaNota.ru - самый крупный в мире бесплатный архив песенных текстов, аккордов, табулатур и нот


Every Time I Die - Off Broadway - текст песни, таба, бас-таба, видео

Регистрация Запомнить меня
Войти через:  Facebook Google Twitter Vk Yandex Mail.ru

Every Time I Die - Off Broadway - текст песни, таба, бас-таба, видео

Печатать
Просмотров: 203
Уроки эстрадного вокала в Санкт-Петербурге
b-bend
p-pull off
h-hammer on
*-pinch harmonic

yea i got sick of not seeing this song not online so i tried it myself,i think its 
please send corrections if you see something
wrong. Theused370@netscape.net

(DADGBE)
intro
        |-------------|
    |-----------------|
    |-----------------|
    |-----------------|
    |-1-0-2-0-5-------|
    |-1-0-2-0-5-------|

	|-------------|
	|-------------|
	|-------------|
	|-------------|
	|-------------|
	|-1-00-2-00-5-|
Pm          ..   ..

	|-------|
	|-------|
	|-7-7-7-|
	|-x-x-x-|
	|-5-5-5-|
	|-x-x-x-|
Riff 1
	|----------------------------------|
	|----------------------------------|
	|----------------------------------|
	|----------------------------------|
	|-1p-0-2p-0-5--1p-0--0h-2-2--5-5-5-|
	|-1p-0-2p-0-5--1p-0--0h-2-2--5-5-5-|

	|------------------------------|
	|------------------------------|
	|------------------------7-7-7-|
	|------------------------x-x-x-|
	|-1p-0-2p-0-5-1p-0-2p-5--5-5-5-|
	|-1p-0-2p-0-5-1p-0-2p-5--x-x-x-|

	|-------------------------------------------------|
	|-------------------------------------------------|
	|-------------------------------------------------|
	|-------------------------------------------------|
	|-1p-0-2p-0-5--1p-0--0h-2-2--5-5-5--0h-2-2--5-5-5-|
	|-1p-0-2p-0-5--1p-0--0h-2-2--5-5-5--0h-2-2--5-5-5-|
Riff 2
	|-------------|
	|-------------|
	|-------------|
	|-------------|
	|-----3-------|
	|-0-3---0-5-2-|

	|-----------|
	|-----------|
	|-----------|
	|-----------|
	|-----3-5-2-|
	|-0-3---5-2-|
fill
	|-------------------------------------|
	|-------------------------------------|
	|-------------------------------------|
	|-------------------------------------|
	|-------------------------------------|
	|-5bp-0-5bp-0-2bp-0-5bp-0-5bp-0-2bp-0-|

Repeat riff 2 and put the fill in between, listen to it and you’ll know where to put it.

Riff 5
	|--------------------|
	|--------------------|
	|--------------------|
	|--------------------|
	|-5-5-2-5-5-2--00-00-|
	|-5-5-2-5-5-2--00-00-|
Pm                     .. ..
Riff 6
	|--------------------------------------------|
	|--------------------------------------------|
	|--------------------------------------------|
	|--------------------------------------------|
	|--------------------------------------00-00-|
	|-5bp-0-5bp-0-2bp-0-5bp-0-5bp-0-2bp-0--00-00-|
Pm                                             .. ..

	|-----------------------------------|
	|-----------------------------------|
	|-----------------------------------|
	|-----------------------------------|
	|--------------00-00-00-------------|
	|-5bp-0-2bp-0--00-00-00-5bp-0-2bp-0-|
Pm                     .. .. ..

Repeat riff 6

	|------------------------------------|
	|------------------------------------|
	|------------------------------------|
	|------------------------------------|
	|-------------0-------------00-00-00-|
	|-5bp-0-2bp-0-0-5bp-0-2bp-0-00-00-00-|
pm                    .             .. .. ..

	|-----------------------------------------|
	|-----------------------------------------|
	|-----------------------------------------|
	|-----------------------------------------|
	|-----3------------3--------3-------------|
	|-0-3---0-5-2--0-3---0-5-2----0-3--3-5-5*-|

	|---------------------------------|
	|---------------------------------|
	|-----------------------------7/8-|
	|-----------------------------x-x-|
	|-----3-----------3-------0-0-5/6-|
	|-0-3---0-5-2-0-3---0-5-2-0-0-x-x-|
Pm                                . .
	|-------------------------------------|
	|-------------------------------------|
	|-------------------------------------|
	|-------------------------------------|
	|-----3-----------3---3--3-5-6--------|
	|-0-3---0-5-2-0-3---0-3--3-5-6--------|

	|------------------------|
	|------------------------|
	|------------------------|
	|------------------------|
	|-0---0---0----3---------|
	|-0---0---0------0-3-5-6-|

Do fill repeat riff 5 then

	|--------------------------------------------|
	|--------------------------------------------|
	|--------------------------------------------|
	|--------------------------------------------| 3x
	|--------------------------------------00-00-|
	|-5bp-0-5bp-0-2bp-0-5bp-0-5bp-0-2bp-0--00-00-|
Pm                                             .. ..

Then
	|-----------------------------|
	|-----------------------------|
	|-----------------------------|
	|-----------------------------|
	|--------------00-00-00-00-00-|
	|-5bp-0-2bp-0--00-00-00-00-00-|
Pm                     .. .. .. .. ..

	|---|
	|---|
	|---|
	|-0-|
	|-0-|
	|-0-|

After drum fill

	|---------------|
	|---------------|
	|---------------|
	|---------------|
	|---------------|
	|-5bp-0-2bp-0-2-|

	|-------------------------------|
	|-------------------------------|
	|-------------------------------|
	|-------------------------------|
	|-0---0-0---0-0-0---------------|
	|-0---0-0---0-0-0-5bp-0-2bp-0-2-|
Добавлено: 12.06.2012
Другие материалы по этой песне:

Страница создана 30.03.2012
http://primanota.ru/every-time-i-die/off-broadway-chords.htm
Привет, Гость.
Предлагаем пройти революционный курс по гитаре.
Подарок от PrimaNota.Ru, забирай!