PrimaNota.ru - самый крупный в мире бесплатный архив песенных текстов, аккордов, табулатур и нот


Every Time I Die - No Son Of Mine - таба, видео

Регистрация Запомнить меня
Войти через:  Facebook Google Twitter Vk Yandex Mail.ru

Every Time I Die - No Son Of Mine - таба, видео

Печатать
Просмотров: 132
First track off The Big Dirty, I suggest everyone buy it, 
its fucking amazing. Look out for more Big Dirty tabs from me soon.

0:00 - 0:02
E|---------------------|
B|---------------------|
G|-----------5~--------|
D|-----------4~--------|
A|-3p0-------3~--------|
D|-----0h4-------------|

0:02 - 0:15
E|----------------------------------------|
B|----------------------------------------|
G|-----------------------------------5~---|
D|-----------------------------------4~---|
A|-3p0------3p0------3p0----3p0------3~---|
D|-----0h4------0h4------4------0h4-------|

E|----------------------------------------|
B|----------------------------------------|
G|-----------------------------------5~---|
D|-----------------------------------4~---|
A|-3p0------3p0------3p0----3p0------3~---|
D|-----0h4------0h4------4------0h4-------|

E|----------------------------------------|
B|----------------------------------------|
G|-----------------------------------5~---|
D|-----------------------------------4~---|
A|-3p0------3p0------3p0----3p0------3~---|
D|-----0h4------0h4------4------0h4-------|

E|-------------------------|
B|-------------------------|
G|-------------------------|
D|-------------------------|
A|-3p0------3p0------3p0---|
D|-----0h4------0h4------4-|

0:15 - 0:18
E|-------------------------------|
B|-------------------------------|
G|-------------------------------|
D|-------------------------------|
A|-15p0-------15p0-------15p0----|
D|------0h16-------0h16-------16-|

E|-------------------------------|
B|-------------------------------|
G|-------------------------------|
D|-------------------------------|
A|-15p0-------15p0-------15p0----|
D|------0h16-------0h16-------16-|

0:18 - 0:25
E|-------------------------|
B|-------------------------|
G|-------------------------|
D|-------------------------|
A|-3p0------3p0------3p0---|
D|-----0h4------0h4------4-|

E|-------------------------|
B|-------------------------|
G|-------------------------|
D|-------------------------|
A|-3p0------3p0------3p0---|
D|-----0h4------0h4------4-|

E|-------------------------|
B|-------------------------|
G|-------------------------|
D|-------------------------|
A|-3p0------3p0------3p0---|
D|-----0h4------0h4------4-|

E|-------------------------|
B|-------------------------|
G|-------------------------|
D|-------------------------|
A|-3p0------3p0------3p0---|
D|-----0h4------0h4------4-|

0:25 - 0:39
E|----------------------------|
B|----------------------------|
G|----------------------------|
D|-1---4---5-4-0-1---4---5-4--|
A|-1---4---3-4-0-1---4---3-4--|
D|-1---4-----4-0-1---4-----4--|

E|----------------------------|
B|----------------------------|
G|----------------------------|
D|-1---4---5-4-0-1---4---5-4--|
A|-1---4---3-4-0-1---4---3-4--|
D|-1---4-----4-0-1---4-----4--|

E|----------------|
B|----------------|
G|----------------|
D|-9---8---5---7--|
A|-7---8---5---7--|
D|-----8---5---7--|

E|----------------------------|
B|----------------------------|
G|----------------------------|
D|-1---4---5-4-0-1---4---5-4--|
A|-1---4---3-4-0-1---4---3-4--|
D|-1---4-----4-0-1---4-----4--|

E|----------------------------|
B|----------------------------|
G|----------------------------|
D|-1---4---5-4-0-1---4---5-4--|
A|-1---4---3-4-0-1---4---3-4--|
D|-1---4-----4-0-1---4-----4--|

E|----------------|
B|----------------|
G|----------------|
D|-9---8---5---7--|
A|-7---8---5---7--|
D|-----8---5---7--|

0:39 - 0:51
E|-------------------------|
B|-------------------------|
G|-------------------------|
D|-------------------------|
A|-3p0------3p0------3p0---|
D|-----0h4------0h4------4-|

E|-------------------------|
B|-------------------------|
G|-------------------------|
D|-------------------------|
A|-3p0------3p0------3p0---|
D|-----0h4------0h4------4-|

E|-------------------------------|
B|-------------------------------|
G|-------------------------------|
D|-------------------------------|
A|-15p0-------15p0-------15p0----|
D|------0h16-------0h16-------16-|

E|-------------------------|
B|-------------------------|
G|-------------------------|
D|-------------------------|
A|-3p0------3p0------3p0---|
D|-----0h4------0h4------4-|

E|-------------------------|
B|-------------------------|
G|-------------------------|
D|-------------------------|
A|-3p0------3p0------3p0---|
D|-----0h4------0h4------4-|

E|-------------------------|
B|-------------------------|
G|-------------------------|
D|-------------------------|
A|-3p0------3p0------3p0---|
D|-----0h4------0h4------4-|

E|-------------------------|
B|-------------------------|
G|-------------------------|
D|-------------------------|
A|-3p0------3p0------3p0---|
D|-----0h4------0h4------4-|

0:51 - 1:07
E|----------------------------|
B|----------------------------|
G|----------------------------|
D|-1---4---5-4-0-1---4---5-4--|
A|-1---4---3-4-0-1---4---3-4--|
D|-1---4-----4-0-1---4-----4--|

E|----------------------------|
B|----------------------------|
G|----------------------------|
D|-1---4---5-4-0-1---4---5-4--|
A|-1---4---3-4-0-1---4---3-4--|
D|-1---4-----4-0-1---4-----4--|

E|----------------|
B|----------------|
G|----------------|
D|-9---8---5---7--|
A|-7---8---5---7--|
D|-----8---5---7--|

E|----------------------------|
B|----------------------------|
G|----------------------------|
D|-1---4---5-4-0-1---4---5-4--|
A|-1---4---3-4-0-1---4---3-4--|
D|-1---4-----4-0-1---4-----4--|

E|----------------------------|
B|----------------------------|
G|----------------------------|
D|-1---4---5-4-0-1---4---5-4--|
A|-1---4---3-4-0-1---4---3-4--|
D|-1---4-----4-0-1---4-----4--|

E|----------------|
B|----------------|
G|----------------|
D|-9---8---5---7--|
A|-7---8---5---7--|
D|-----8---5---7--|

E|------------------|
B|------------------|
G|-5555555555555555-|
D|-4444444444444444-|
A|-3333333333333333-|
D|------------------|

1:08 - 1:29
E|--------------------------|
B|--------------------------|
G|--------------------------|
D|-4---4---------4---4-4----|
A|-3-0-3--0-0-0--3-0-3-3-0--|
D|-4-0-4--0-0-0--4-0-4-4-0--|
     *    * * *    *     *
E|--------------------------|
B|--------------------------|
G|--------------------------|
D|-4---4---------4---4-4----|
A|-3-0-3--0-0-0--3-0-3-3-0--|
D|-4-0-4--0-0-0--4-0-4-4-0--|
     *    * * *    *     *

E|--------------------------|
B|--------------------------|
G|--------------------------|
D|-4---4---------4---4-4----|
A|-3-0-3--0-0-0--3-0-3-3-0--|
D|-4-0-4--0-0-0--4-0-4-4-0--|
     *    * * *    *     *

E|------------------------------|
B|------------------------------|
G|-------------------------5~---|
D|-4---4---------4---4-----4~---|
A|-3-0-3--0-0-0--3-0-3-0-0-3~---|
D|-4-0-4--0-0-0--4-0-4-0-0------|
     *    * * *    *   * *

E|--------------------------|
B|--------------------------|
G|--------------------------|
D|-4---4---------4---4-4----|
A|-3-0-3--0-0-0--3-0-3-3-0--|
D|-4-0-4--0-0-0--4-0-4-4-0--|
     *    * * *    *     *
E|--------------------------|
B|--------------------------|
G|--------------------------|
D|-4---4---------4---4-4----|
A|-3-0-3--0-0-0--3-0-3-3-0--|
D|-4-0-4--0-0-0--4-0-4-4-0--|
     *    * * *    *     *

E|--------------------------|
B|--------------------------|
G|--------------------------|
D|-4---4---------4---4-4----|
A|-3-0-3--0-0-0--3-0-3-3-0--|
D|-4-0-4--0-0-0--4-0-4-4-0--|
     *    * * *    *     *

E|------------------------------|
B|------------------------------|
G|-------------------------5~---|
D|-4---4---------4---4-----4~---|
A|-3-0-3--0-0-0--3-0-3-0-0-3~---|
D|-4-0-4--0-0-0--4-0-4-0-0------|
     *    * * *    *   * *
1:29 - 1:32
E|-------------------------------|
B|-------------------------------|
G|-------------------------------|
D|-------------------------------|
A|-15p0-------15p0-------15p0----|
D|------0h16-------0h16-------16-|

E|-------------------------------|
B|-------------------------------|
G|-------------------------------|
D|-------------------------------|
A|-15p0-------15p0-------15p0----|
D|------0h16-------0h16-------16-|

1:32 - 1:36
E|-------------------------|
B|-------------------------|
G|-------------------------|
D|-------------------------|
A|-3p0------3p0------3p0---|
D|-----0h4------0h4------4-|

E|-------------------------|
B|-------------------------|
G|-------------------------|
D|-------------------------|
A|-3p0------3p0------3p0---|
D|-----0h4------0h4------4-|

1:36 - 1:43
E|----------------------------|
B|----3--2---2---2---2---2----|
G|-3--4--3p0-3p0-3p0-3p0-3p0--|
D|----------------------------|
A|----------------------------|
D|----------------------------|

E|----------------------------|
B|----3--2---2---2---2---2----|
G|-3--4--3p0-3p0-3p0-3p0-3p0--|
D|----------------------------|
A|----------------------------|
D|----------------------------|

E|----------------------------|
B|----3--2---2---2---2---2----|
G|-3--4--3p0-3p0-3p0-3p0-3p0--|
D|----------------------------|
A|----------------------------|
D|----------------------------|

E|----------------------------|
B|----3--2---2---2---2---2----|
G|-3--4--3p0-3p0-3p0-3p0-3p0--|
D|----------------------------|
A|----------------------------|
D|----------------------------|

1:43 - 1:50
E|-------------------------|
B|-------------------------|
G|-------------------------|
D|-------------------------|
A|-3p0------3p0------3p0---|
D|-----0h4------0h4------4-|

E|-------------------------|
B|-------------------------|
G|-------------------------|
D|-------------------------|
A|-3p0------3p0------3p0---|
D|-----0h4------0h4------4-|

E|-------------------------|
B|-------------------------|
G|-------------------------|
D|-------------------------|
A|-3p0------3p0------3p0---|
D|-----0h4------0h4------4-|

E|-------------------------|
B|-------------------------|
G|-------------------------|
D|-------------------------|
A|-3p0------3p0------3p0---|
D|-----0h4------0h4------4-|

1:50 - 2:04
E|----------------------------|
B|----------------------------|
G|----------------------------|
D|-1---4---5-4-0-1---4---5-4--|
A|-1---4---3-4-0-1---4---3-4--|
D|-1---4-----4-0-1---4-----4--|

E|----------------------------|
B|----------------------------|
G|----------------------------|
D|-1---4---5-4-0-1---4---5-4--|
A|-1---4---3-4-0-1---4---3-4--|
D|-1---4-----4-0-1---4-----4--|

E|----------------|
B|----------------|
G|----------------|
D|-9---8---5---7--|
A|-7---8---5---7--|
D|-----8---5---7--|

E|----------------------------|
B|----------------------------|
G|----------------------------|
D|-1---4---5-4-0-1---4---5-4--|
A|-1---4---3-4-0-1---4---3-4--|
D|-1---4-----4-0-1---4-----4--|

E|----------------------------|
B|----------------------------|
G|----------------------------|
D|-1---4---5-4-0-1---4---5-4--|
A|-1---4---3-4-0-1---4---3-4--|
D|-1---4-----4-0-1---4-----4--|

E|----------------|
B|----------------|
G|----------------|
D|-9---8---5---7--|
A|-7---8---5---7--|
D|-----8---5---7--|

2:04 - 2:37
E|--------------------------|
B|--------------------------|
G|--------------------------|
D|-4---4---------4---4-4----|
A|-3-0-3--0-0-0--3-0-3-3-0--|
D|-4-0-4--0-0-0--4-0-4-4-0--|
     *    * * *    *     *
E|--------------------------|
B|--------------------------|
G|--------------------------|
D|-4---4---------4---4-4----|
A|-3-0-3--0-0-0--3-0-3-3-0--|
D|-4-0-4--0-0-0--4-0-4-4-0--|
     *    * * *    *     *

E|--------------------------|
B|--------------------------|
G|--------------------------|
D|-4---4---------4---4-4----|
A|-3-0-3--0-0-0--3-0-3-3-0--|
D|-4-0-4--0-0-0--4-0-4-4-0--|
     *    * * *    *     *

E|------------------------------|
B|------------------------------|
G|-------------------------5~---|
D|-4---4---------4---4-----4~---|
A|-3-0-3--0-0-0--3-0-3-0-0-3~---|
D|-4-0-4--0-0-0--4-0-4-0-0------|
     *    * * *    *   * *

E|--------------------------|
B|--------------------------|
G|--------------------------|
D|-4---4---------4---4-4----|
A|-3-0-3--0-0-0--3-0-3-3-0--|
D|-4-0-4--0-0-0--4-0-4-4-0--|
     *    * * *    *     *
E|--------------------------|
B|--------------------------|
G|--------------------------|
D|-4---4---------4---4-4----|
A|-3-0-3--0-0-0--3-0-3-3-0--|
D|-4-0-4--0-0-0--4-0-4-4-0--|
     *    * * *    *     *

E|--------------------------|
B|--------------------------|
G|--------------------------|
D|-4---4---------4---4-4----|
A|-3-0-3--0-0-0--3-0-3-3-0--|
D|-4-0-4--0-0-0--4-0-4-4-0--|
     *    * * *    *     *

E|------------------------------|
B|------------------------------|
G|-------------------------5~---|
D|-4---4---------4---4-----4~---|
A|-3-0-3--0-0-0--3-0-3-0-0-3~---|
D|-4-0-4--0-0-0--4-0-4-0-0------|
     *    * * *    *   * *
E|--------------------------|
B|--------------------------|
G|--------------------------|
D|-4---4---------4---4-4----|
A|-3-0-3--0-0-0--3-0-3-3-0--|
D|-4-0-4--0-0-0--4-0-4-4-0--|
     *    * * *    *     *
E|--------------------------|
B|--------------------------|
G|--------------------------|
D|-4---4---------4---4-4----|
A|-3-0-3--0-0-0--3-0-3-3-0--|
D|-4-0-4--0-0-0--4-0-4-4-0--|
     *    * * *    *     *

E|--------------------------|
B|--------------------------|
G|--------------------------|
D|-4---4---------4---4-4----|
A|-3-0-3--0-0-0--3-0-3-3-0--|
D|-4-0-4--0-0-0--4-0-4-4-0--|
     *    * * *    *     *

E|------------------------------|
B|------------------------------|
G|-------------------------5~---|
D|-4---4---------4---4-----4~---|
A|-3-0-3--0-0-0--3-0-3-0-0-3~---|
D|-4-0-4--0-0-0--4-0-4-0-0------|
     *    * * *    *   * *
2:37 - 2:46
E|--------------------|
B|--------------------|
G|--------------------|
D|---FEEDBACK!!!!-----|
A|--------------------|
D|--------------------|

2:47 - 2:59
E|--------------------------|
B|--------------------------|
G|--------------------------|
D|--------------------------|
A|-3-0-3--0-0-0--3-0-3-3-0--|
D|-4-0-4--0-0-0--4-0-4-4-0--|
     *    * * *    *     *
E|--------------------------|
B|--------------------------|
G|--------------------------|
D|--------------------------|
A|-3-0-3--0-0-0--3-0-3-3-0--|
D|-4-0-4--0-0-0--4-0-4-4-0--|
     *    * * *    *     *
E|--------------------------|
B|--------------------------|
G|--------------------------|
D|--------------------------|
A|-3-0-3--0-0-0--3-0-3-3-0--|
D|-4-0-4--0-0-0--4-0-4-4-0--|
     *    * * *    *     *
E|------------------------------|
B|------------------------------|
G|-------------------------5~---|
D|-------------------------4~---|
A|-3-0-3--0-0-0--3-0-3-0-0-3~---|
D|-4-0-4--0-0-0--4-0-4-0-0------|
     *    * * *    *   * *
3:00 - 3:12
E|--------------------------|
B|--------------------------|
G|--------------------------|
D|-4---4---------4---4-4----|
A|-3-0-3--0-0-0--3-0-3-3-0--|
D|-4-0-4--0-0-0--4-0-4-4-0--|
     *    * * *    *     *
E|--------------------------|
B|--------------------------|
G|--------------------------|
D|-4---4---------4---4-4----|
A|-3-0-3--0-0-0--3-0-3-3-0--|
D|-4-0-4--0-0-0--4-0-4-4-0--|
     *    * * *    *     *

E|--------------------------|
B|--------------------------|
G|--------------------------|
D|-4---4---------4---4-4----|
A|-3-0-3--0-0-0--3-0-3-3-0--|
D|-4-0-4--0-0-0--4-0-4-4-0--|
     *    * * *    *     *

E|------------------------------|
B|------------------------------|
G|-------------------------5~---|
D|-4---4---------4---4-----4~---|
A|-3-0-3--0-0-0--3-0-3-0-0-3~---|
D|-4-0-4--0-0-0--4-0-4-0-0------|
     *    * * *    *   * *
3:12 - END
E|--------------------|
B|--------------------|
G|--------------------|
D|---FEEDBACK!!!!-----|
A|--------------------|
D|--------------------|

Let me know what ya think!
Добавлено: 14.06.2012
Другие материалы по этой песне:

Страница создана 10.06.2012
http://primanota.ru/every-time-i-die/no-son-of-mine-chords.htm
Привет, Гость.
Предлагаем пройти революционный курс по гитаре.
Подарок от PrimaNota.Ru, забирай!