PrimaNota.ru - самый крупный в мире бесплатный архив песенных текстов, аккордов, табулатур и нот


Every Time I Die - New Black - текст песни, таба, бас-таба, видео

Регистрация Запомнить меня
Войти через:  Facebook Google Twitter Vk Yandex Mail.ru

Every Time I Die - New Black - текст песни, таба, бас-таба, видео

Печатать
Просмотров: 206
Уроки эстрадного вокала в Санкт-Петербурге
Song: The New Black
Artist: Every Time I Die
Album: Gutter Phenomenon
Year: 2005
Tabbed By: jasonkan (jason_902@hotmail.com)

Tuning:(D A D G B E)

*First and foremost thanks for all your comments and suggestions,
they've gone a long way in making this a near-perfect tab for a great song.

**RECENT UPDATE of alternate pre-chorus/chorus lick [07/02/08]
A long story, but this is the UPDATED VERSION which has now been made
more accurate thanks to your comments. Hope this gives a
good idea of the song and feel free to rate.
This is the Anthem.

  Intro: [Click, ‘HAHA']
E|--------------------------------------------------------------------------|
B|--------------------------------------------------------------------------|
G|--------------------------------------------------------------------------|
D|-2xx22----------2xx22-------------------2xx22-----------------------------|
A|-2xx22---2------2xx22---2--------2------2xx22---2--------2----------------|
D|-2xx22-2---5-2--2xx22-2---5-2--0---5-2--2xx22-2---5-2--0---5-2--0-2/5-5-0-|
[just keep repeating this pattern, its all based around the same notes except different
patterns in places]

        ‘don't you know who I am?' Etc.
E|--------------------------------------------------------------------------|
B|--------------------------------------------------------------------------|
G|--------------------------------------------------------------------------|
D|-02022-----------02022-20-----------------0-2/5-5-0--------0-2/5-5-0------|
A|-02022----2------02022-20--2-------2------0-2/5-5-0--2-----0-2/5-5-0------|
D|-02022--2---5-2--02022-20----5-2-0---5-2--0-2/5-5-0----5-2-0-2/5-5-0------|

Pre-Chorus: ‘With a camera as a witness I will suffer...'
E|--------------------------------------------------------------------------|
B|--------------------------------------------------------------------------|
G|--------------------------------------------------------------------------|
D|-2-2-----2----------------------2-2---2-5-0-0--0-0-2-5-0------------------|
A|-2-2-2h5---5-2-2-2h5p2----2-----2-2---2-5-0-0--0-0-2-5-0------------------|
D|-2-2--------------------5----5--2-2---2-5-0-0--0-0-2-5-0------------------|x2

Chorus: ‘If everything I do is wrong...'
E|--------------------------------------------------------------------------|
B|--------------------------------------------------------------------------|
G|--------------------------------------------------------------------------|
D|-2-2-----2----------------------2-2---2-5-0-0--0-0-2-5-0------------------|
A|-2-2-2h5---5-2-2-2h5p2----2-----2-2---2-5-0-0--0-0-2-5-0------------------|
D|-2-2--------------------5----5--2-2---2-5-0-0--0-0-2-5-0------------------|x4

Verse: ‘we don't dance, no-no-no-no-no… WWE GOT CLASS!'
E|---------------------------------------------------------------------------|
B|---------------------------------------------------------------------------|
G|---------------------------------------------------------------------------|
D|-2-2---------------2xx2-----------------14---------------------------------|
A|-2-2---------------2xx2-----------14h17----17—-14--14-14h17p14-----14------|
D|-2-2---------------2xx2-----------------------------------------17----17---|

‘..no we don't have any fun at all...'
E|-----------------------------------------------------6b-------------------|
B|-----------------------------------0h3-5-3-0-0-0h3p0----------------------|
G|--------------------------------------------------------------------------|
D|-2-2-----------------2xx2-------------------------------------------------|
A|-2-2-----------------2xx2-------------------------------------------------|
D|-2-2-----------------2xx2-------------------------------------------------|

‘We're not stunning           ...we're just stunned'
E|--------------------------------------------------------------------------|
B|--------------------------------------------------------------------------|
G|--------------------------------------------------------------------------|
D|-2xx2-------2-0-2---2xx2------2-2-----------------------------------------|
A|-2xx2-------2-0-2---2xx2------2-2-----------------------------------------|
D|-2xx2—-5br--2-0-2---2xx2-—5br-2-2-----------------------------------------|

Solo: Guitar 1 plays this sequence [an incongruence to the number of
Strummings but again based around the same notes]
E|--------------------------------------------------------------------------|
B|--------------------------------------------------------------------------|
G|--------------------------------------------------------------------------|
D|--9-9-9-9-9-9-9-9-9-9-9-9-9-9-9-9-9—-5-5-5-5-5-5-5-5-5-5-5-5-5-5-5-5-5-5--|
A|--9-9-9-9-9-9-9-9-9-9-9-9-9-9-9-9-9—-5-5-5-5-5-5-5-5-5-5-5-5-5-5-5-5-5-5--|
D|--9-9-9-9-9-9-9-9-9-9-9-9-9-9-9-9-9—-5-5-5-5-5-5-5-5-5-5-5-5-5-5-5-5-5-5--|


E|--------------------------------------------------------------------------|
B|--------------------------------------------------------------------------|
G|----------------9---------------------------------------------------------|
D|-2--5--8--5--9--9--9--5---------------------------------------------------|
A|-2--5--8--5--9--7--9--5---------------------------------------------------|
D|-2--5--8--5--9-----9--5---------------------------------------------------|whole bit x2

Solo: Guitar 2 plays solo
E|----------11b—11h13---------------------------10b12~----------------------|
B|--11br---------------10------10h12p10-------------------------------------|
G|------------------------12------------12----------------------------------|
D|--------------------------------------------------------------------------|
A|--------------------------------------------------------------------------|
D|--------------------------------------------------------------------------|

from the 10b12~ return bend to 10:
E|--r10-----------10h12p10---------------------------10h12p10---10----------|
B|-------12------------------12----12--12--12-----------------12--12-10-----|
G|-----------12--------------------------------12---------------------------|
D|--------------------------------------------------------------------------|
A|--------------------------------------------------------------------------|
D|--------------------------------------------------------------------------|

E|-------------------------------12----------------------------------12-----|
B|----------------------------------12-11-12-11-12----------------12----12--|
G|--12-14-12p9----12-14-12p9-----------------------12-11---9-12-9-----------|
D|-------------9-------------9---------------------------9------------------|
A|--------------------------------------------------------------------------|
D|--------------------------------------------------------------------------|

Pre-Chorus:
E|--------------------------------------------------------------------------|
B|--------------------------------------------------------------------------|
G|---------------4----------------------------------------------------------|
D|-2xx22-xx22--2-4-5-2--2xx22-2--------—--2xx22------------------0-2/5-5-0--|
A|-2xx22-xx22--2-2-5-2--2xx22-2----2------2xx22----2-------2-----0-2/5-5-0--|
D|-2xx22-xx22--2---5-2--2xx22-2--2---5-2--2xx22--2---5-2-0---5-2-0-2/5-5-0--|x2

Then:
E|------------------------------||
B|------------------------------||
G|------------------------------||
D|-------------------0-2/5-5-0--||
A|---2-------2-------0-2/5-5-0--||
D|-2---5-2-0---5-2---0-2/5-5-0--||

Chorus: ‘Well, if loving me is wrong...'
E|--------------------------------------------------------------------------|
B|--------------------------------------------------------------------------|
G|--------------------------------------------------------------------------|
D|-2-2-----2----------------------2-2---2-5-0-0--0-0-2-5-0------------------|
A|-2-2-2h5---5-2-2-2h5p2----2-----2-2---2-5-0-0--0-0-2-5-0------------------|
D|-2-2--------------------5----5--2-2---2-5-0-0--0-0-2-5-0------------------|x2

Outro:
E|-------------------------------------------------/12----------------------|
B|------------------[rheeeaoooow]-------------------------------------------|
G|-----------------//pick-scrape//------------------------------------------|
D|--2--0--2--0--2------------------2--0--2--0--2----------------------------|
A|--2--0--2--0--2------------------2--0--2--0--2----------------------------|
D|--2--0--2--0--2------------------2--0--2--0--2----------------------------|

E|--------------------------------------------------------------------------|
B|--------------------------------------------------------------------------|
G|--------------------------------------------------------------------------|
D|--2--0--2-------2--0--2-------2--0--2-------2--2--2-----------------------|
A|--2--0--2-------2--0--2-------2--0--2-------2--2--2-----------------------|
D|--2--0--2—-5br--2--0--2-------2--0--2—-5br--2--2--2-----------------------|

Thanks to Adam Antonelli for corrections;
Other queries please email/add me on msn at jason_902@hotmail.com for any
further suggestions/comments.
Добавлено: 17.05.2012
Другие материалы по этой песне:

Страница создана 01.03.2012
http://primanota.ru/every-time-i-die/new-black-chords.htm
Привет, Гость.
Предлагаем пройти революционный курс по гитаре.
Подарок от PrimaNota.Ru, забирай!