PrimaNota.ru - самый крупный в мире бесплатный архив песенных текстов, аккордов, табулатур и нот


Every Time I Die - Leatherneck - таба, видео

Регистрация Запомнить меня
Войти через:  Facebook Google Twitter Vk Yandex Mail.ru

Every Time I Die - Leatherneck - таба, видео

Печатать
Просмотров: 131
-------------------------------------------------------------------------------
                             Leatherneck - Every Time I Die
-------------------------------------------------------------------------------

Awesome song surprisingly no tabs for it though.
Anyway here it is hope you enjoy it pretty sure 
it's 100% correct if not post correction and i'll change it,
may be a little messy to read though but the layout is fairly sample,
alot of repition in this song,
Enjoy.


ibanez_uchiha

Tuning: drop D

Guitar One
00:00
     PM--                   PM--
e|----------------------------------------------------------------|
B|----------------------------------------------------------------|
G|----------------------------------------------------------------|
D|--7------------7/-------7------------7/-------------------------|
A|--6------------6/-------6------------6/-------------------------|
D|--7--0-0--3/6--7/-------7--0-0--3/6--7/-------------------------|
       

Guitar One.
00:06
     PM--                                  PM--
e|----------------------------------------------------------------------|
B|----------------------------------------------------------------------|
G|----------------------------------------------------------------------|
D|--7------------7/----------------------7------------7/----------------|
A|--6------------6/----------------------6------------6/----------------|
D|--7--0-0--3/6--7/----------------------7--0-0--3/6--7/----------------|


Guitar Two
00:07

e|-----------------------------------------------------------------------|
B|-----------------------------------------------------------------------|
G|-----------------------------------------------------------------------|
D|---------7h0----------------------------------7h0----------------------|
A|--7h0-6h0-----7h0-6h0-3h0-6h0-3h0------7h0-6h0-----7h0-6h0-3h0-6h0-3h0-|
D|-----------------------------------------------------------------------|


Guitar One.

     PM--                   PM--
e|----------------------------------------------------------------|
B|----------------------------------------------------------------|
G|----------------------------------------------------------------|
D|--7------------7/-------7------------7/-------------------------|
A|--6------------6/-------6------------6/-------------------------|
D|--7--0-0--3/6--7/-------7--0-0--3/6--7/-------------------------|


Guitar Two


e|-----------------------------------------------------------------------|
B|-----------------------------------------------------------------------|
G|-----------------------------------------------------------------------|
D|---------7h0-----------------------------------7h0---------------------|
A|--7h0-6h0-----7h0-6h0-3h0-6h0-3h0------7h0-6h0-----7h0-6h0-3h0-6h0-3h0-|
D|-----------------------------------------------------------------------|


Guitars One And Two
00:18
     PM--                   PM--
e|----------------------------------------------------------------|
B|----------------------------------------------------------------|
G|----------------------------------------------------------------|
D|--7------------7/-------7------------7-7/-----------------------|
A|--6------------6/-------6------------6-6/-----------------------|
D|--7--0-0--3/6--7/-------7--0-0--3/6--7-7/-----------------------|



Guitars One And Two
00:24
     PM--            PM--         PM--
e|-----------------------------------------------------------------|
B|-----------------------------------------------------------------|
G|-----------------------------------------------------------------|
D|--7------------7-7-----------7-7-----------7-7-7-7-7-7-----------|
A|--6------------6-6-----------6-6-----------6-6-6-6-6-6-----------|
D|--7--0-0--3/6--7-7--0-0--3/6-7-7--0-0--3/6-7-7-7-7-7-7-----------|



Guitar One.
00:29                  
e|----------------------------------------------------------------|
B|----------------------------------------------------------------|
G|----------------------------------------------------------------|
D|--7-----------------7-7----------------------------7-7----------|
A|--7-----------------7-7----------------------------7-7----------|
D|--7-----------------7-7----------------------------7-7----------|



Guitar Two
00:29

e|-----------------------------------------------------------------------|
B|-----------------------------------------------------------------------|
G|-----------------------------------------------------------------------|
D|---------7h0-----------------------------------7h0---------------------|
A|--7h0-6h0-----7h0-6h0-3h0-6h0-3h0------7h0-6h0-----7h0-6h0-3h0-6h0-3h0-|
D|-----------------------------------------------------------------------|


Guitar One and Two
00:34

e|---------------------------------------------------------------------------|
B|---------------------------------------------------------------------------|
G|---------------------------------------------------------------------------|
D|--7/6--3-6-----------------------------------------------------------------|
A|--7/6--3-6-----------------------------------------------------------------|
D|--7/6--3-6-----------------------------------------------------------------|


Guitar One and Two
00:35


e|-----------------------------------------------------------------------|
B|-----------------------------------------------------------------------|
G|-----------------------------------------------------------------------|
D|---------7h0-----------------------------------7h0---------------------|
A|--7h0-6h0-----7h0-6h0-3h0-6h0-3h0------7h0-6h0-----7h0-6h0-3h0-6h0-3h0-|
D|-----------------------------------------------------------------------|


e|-----------------------------------------------------------------------|
B|-----------------------------------------------------------------------|
G|-----------------------------------------------------------------------|
D|---------7h0------------------------7-6--3--6--------------------------|
A|--7h0-6h0-----7h0-6h0-3h0-6h0-3h0---7-6--3--6--------------------------|
D|------------------------------------7-6--3--6--------------------------|


Guitar One and Two
00:41


e|-----------------------------------------------------------------------|
B|-----------------------------------------------------------------------|
G|-----------------------------------------------------------------------|
D|---------7h0-----------------------------------7h0---------------------|
A|--7h0-6h0-----7h0-6h0-3h0-6h0-3h0------7h0-6h0-----7h0-6h0-3h0-6h0-3h0-|
D|-----------------------------------------------------------------------|


e|-----------------------------------------------------------------------|
B|-----------------------------------------------------------------------|
G|-----------------------------------------------------------------------|
D|---------7h0------------------------7-6--3--6--------------------------|
A|--7h0-6h0-----7h0-6h0-3h0-6h0-3h0---7-6--3--6--------------------------|
D|------------------------------------7-6--3--6--------------------------|


Guitar One and Two.
00:47

e|-----------------------------------------------------------------|
B|-----------------------------------------------------------------|
G|-----------------------------------------------------------------|
D|-----------------------------------X8----------------------------|
A|---------5h0-----------------------------------------------------|
D|-7h0-6h0-----7h0-6h0-3h0-6h0-3h0---------------------------------|


Guitar One.
00:59

e|---------------------------------------------------------------|
B|---------------------------------------------------------------|
G|---------------------------------------------------------------|
D|--7/6--3-6---7/6--3-6---7/6--3-6-------------------------------|
A|--7/6--3-6---7/6--3-6---7/6--3-6-------------------------------|
D|--7/6--3-6---7/6--3-6---7/6--3-6-------------------------------|

Guitars One and Two.
01:03

           PM----------------          PM----------------    
e|---------------------------------------------------------------|
B|---------------------------------------------------------------|
G|---------------------------------------------------------------|
D|--7/6--3-6-------------------7/6--3-6--------------------------|
A|--7/6--3-6--0-0-0-0-0-0-0-0--7/6--3-6--0-000-000-000-0---------|
D|--7/6--3-6--0-0-0-0-0-0-0-0--7/6--3-6--0-000-000-000-0---------|


           PM----------------          PM----------------    
e|---------------------------------------------------------------|
B|---------------------------------------------------------------|
G|---------------------------------------------------------------|
D|--7/6--3-6-------------------7/6--3-6--------------------------|
A|--7/6--3-6--0-0-0-0-0-0-0-0--7/6--3-6--0-000-000-000-0---------|
D|--7/6--3-6--0-0-0-0-0-0-0-0--7/6--3-6--0-000-000-000-0---------|



Guitar One.
01:15                 
e|----------------------------------------------------------------|
B|----------------------------------------------------------------|
G|----------------------------------------------------------------|
D|--7-----------------7-7----------------------------7-7----------|
A|--7-----------------7-7----------------------------7-7----------|
D|--7-----------------7-7----------------------------7-7----------|



Guitar Two
01:15

e|-----------------------------------------------------------------------|
B|-----------------------------------------------------------------------|
G|-----------------------------------------------------------------------|
D|---------7h0-----------------------------------7h0---------------------|
A|--7h0-6h0-----7h0-6h0-3h0-6h0-3h0------7h0-6h0-----7h0-6h0-3h0-6h0-3h0-|
D|-----------------------------------------------------------------------|

Guitar One.
01:15                 
e|----------------------------------------------------------------|
B|----------------------------------------------------------------|
G|----------------------------------------------------------------|
D|------------7-7----------------------------------------7--------|
A|------------7-7----------------------------------------7--------|
D|------------7-7----------------------------------------7--------|

Guitar Two
01:15

e|-----------------------------------------------------------------------|
B|-----------------------------------------------------------------------|
G|-----------------------------------------------------------------------|
D|---------7h0-----------------------------------7h0---------------------|
A|--7h0-6h0-----7h0-6h0-3h0-6h0-3h0------7h0-6h0-----7h0-6h0-3h0-6h0-3h0-|
D|-----------------------------------------------------------------------|


Guitar One and Two.
01:22

e|-----------------------------------------------------------------|
B|-----------------------------------------------------------------|
G|-----------------------------------------------------------------|
D|-----------------------------------X8----------------------------|
A|---------5h0-----------------------------------------------------|
D|-7h0-6h0-----7h0-6h0-3h0-6h0-3h0---------------------------------|



Guitar One.
01:33
                       
e|----------------------------------------------------------------|
B|----------------------------------------------------------------|
G|----------------------------------------------------------------|
D|--7/--------7/--------------------------------------------------|
A|--6/--------6/--------------------------------------------------|
D|--7/---3/6--7/--------------------------------------------------|


Guitar One and Two.
01:36

     PM--                   PM--
e|----------------------------------------------------------------|
B|----------------------------------------------------------------|
G|----------------------------------------------------------------|
D|--7------------7/-------7------------7/-------------------------|
A|--6------------6/-------6------------6/-------------------------|
D|--7--0-0--3/6--7/-------7--0-0--3/6--7/-------------------------|

Guitar Two.
01:41

e|-----------------------------------------------------------------------|
B|-----------------------------------------------------------------------|
G|-----------------------------------------------------------------------|
D|---------7h0-----------------------------------------------------------|
A|--7h0-6h0-----7h0-6h0-3h0-6h0-3h0--------------------------------------|
D|-----------------------------------------------------------------------|


Guitars One and Two.
01:42
     PM--                    PM--
e|----------------------------------------------------------------|
B|----------------------------------------------------------------|
G|----------------------------------------------------------------|
D|--7------------7-(7)------7------------7/-----------------------|
A|--6------------6-(6)------6------------6/-----------------------|
D|--7--0-0--3/6--7-(7)------7--0-0--3/6--7/-----------------------|



Guitar Two.
01:47

e|-----------------------------------------------------------------------|
B|-----------------------------------------------------------------------|
G|-----------------------------------------------------------------------|
D|---------7h0-----------------------------------------------------------|
A|--7h0-6h0-----7h0-6h0-3h0-6h0-3h0--------------------------------------|
D|-----------------------------------------------------------------------|


Guitars One And Two
01:48
     PM--                   PM--
e|----------------------------------------------------------------|
B|----------------------------------------------------------------|
G|----------------------------------------------------------------|
D|--7------------7/-------7------------7-7/-----------------------|
A|--6------------6/-------6------------6-6/-----------------------|
D|--7--0-0--3/6--7/-------7--0-0--3/6--7-7/-----------------------|

     PM--            PM--         PM--
e|-----------------------------------------------------------------|
B|-----------------------------------------------------------------|
G|-----------------------------------------------------------------|
D|--7------------7-7-----------7-7-----------7-7-7-7-7-7-----------|
A|--6------------6-6-----------6-6-----------6-6-6-6-6-6-----------|
D|--7--0-0--3/6--7-7--0-0--3/6-7-7--0-0--3/6-7-7-7-7-7-7-----------|

Guitars One and Two.
2:00

e|-----------------------------------------------------------------------|
B|-----------------------------------------------------------------------|
G|-----------------------------------------------------------------------|
D|---------7h0-----------------------------------7h0---------------------|
A|--7h0-6h0-----7h0-6h0-3h0-6h0-3h0------7h0-6h0-----7h0-6h0-3h0-6h0-3h0-|
D|-----------------------------------------------------------------------|


e|--------------------------------------------------------------------------|
B|--------------------------------------------------------------------------|
G|------------------------------------------------------------------------7-|
D|---------7h0-----------------------------------7h0----------------------7-|
A|--7h0-6h0-----7h0-6h0-3h0-6h0-3h0------7h0-6h0-----7h0-6h0-3h0-6h0-3h0--5-|
D|--------------------------------------------------------------------------|


| /  slide up
| \  slide down
| h  hammer-on
| p  pull-off
| ~  vibrato
| +  harmonic
| x  Mute note
===============================================================================
Добавлено: 03.06.2012
Другие материалы по этой песне:

Страница создана 23.05.2012
http://primanota.ru/every-time-i-die/leatherneck-chords.htm
Привет, Гость.
Предлагаем пройти революционный курс по гитаре.
Подарок от PrimaNota.Ru, забирай!