PrimaNota.ru - самый крупный в мире бесплатный архив песенных текстов, аккордов, табулатур и нот


Every Time I Die - Kill The Music - текст песни, таба, бас-таба, видео

Регистрация Запомнить меня
Войти через:  Facebook Google Twitter Vk Yandex Mail.ru

Every Time I Die - Kill The Music - текст песни, таба, бас-таба, видео

Печатать
Просмотров: 185
Um, i think this is the whole song, but some of it may be sketchy

tuning e B G D A D

p = pull off
h = hameron
/ = slide

so this is the basic guitaring

|----------------------------------------------------------------------------|
|----------------------------------------------------------------------------|
|----------------------------------------------------------------------------|
|-3p0-3p0-3p0-3p0-3p0-3p0-3p0-3p0-3h5---0-3p0h3h5---0-3p0h3h5---0-3p0h3h5----|
|-3p0-3p0-3p0-3p0-3p0-3p0-3p0-3p0-3h5---0-3p0h3h5---0-3p0h3h5---0-3p0h3h5----|
|-3p0-3p0-3p0-3p0-3p0-3p0-3p0-3p0-3h5---0-3p0h3h5---0-3p0h3h5---0-3p0h3h5----|

thats done twice followed by

|----------------------------------------------------------------------------|
|----------------------------------------------------------------------------|
|----------------------------------------------------------------------------|
|-0-5p3p0--------------3-3-3-3-3-3-3-3-3-3-0-3p0h3h5---0-3p0h3h5---0-3p0h3h5-|
|-0------h3p0----------3-3-3-3-3-3-3-3-3-3-0-3p0h3h5---0-3p0h3h5---0-3p0h3h5-|
|-0----------h3p0h3h5--3-3-3-3-3-3-3-3-3-3-0-3p0h3h5---0-3p0h3h5---0-3p0h3h5-|
                       . . . . . . . . . .

followed by....

|----------------------------------------------------------------------------|
|----------------------------------------------------------------------------|
|----------------------------------------------------------------------------|
|-3p0-3p0-3p0-3p0-3p0-3p0-3p0-3p0-3h5---0-3p0h3h5---0-3p0h3h5---0-3p0h3h5----|
|-3p0-3p0-3p0-3p0-3p0-3p0-3p0-3p0-3h5---0-3p0h3h5---0-3p0h3h5---0-3p0h3h5----|
|-3p0-3p0-3p0-3p0-3p0-3p0-3p0-3p0-3h5---0-3p0h3h5---0-3p0h3h5---0-3p0h3h5----|

then do this twice

|-------------------------------------------------------|
|-------------------------------------------------------|
|-------------------------------------------------------|
|-0-5p3p0--------------33/5-555---33/5-555---33/5-555---|
|-0------h3p0----------33/5-555---33/5-555---33/5-555---|
|-0----------h3p0h3h5--33/5-555---33/5-555---33/5-555---|

then

|----------------------|
|----------------------|
|----------------------|
|-0-5p3p0--------------|
|-0------h3p0----------|
|-0----------h3p0h3h5--|

then back to the whole

|----------------------------------------------------------------------------|
|----------------------------------------------------------------------------|
|----------------------------------------------------------------------------|
|-3p0-3p0-3p0-3p0-3p0-3p0-3p0-3p0-3h5---0-3p0h3h5---0-3p0h3h5---0-3p0h3h5----|
|-3p0-3p0-3p0-3p0-3p0-3p0-3p0-3p0-3h5---0-3p0h3h5---0-3p0h3h5---0-3p0h3h5----|
|-3p0-3p0-3p0-3p0-3p0-3p0-3p0-3p0-3h5---0-3p0h3h5---0-3p0h3h5---0-3p0h3h5----|

then the interlude is simpley

|-----------|
|-----------|
|-----------|
|-3-3-3-3-3-|
|-3-3-3-3-3-|
|-3-3-3-3-3-|
  . . . . .

do that loads of times... then i'm not quite sure about the ending is

|------------------------------|
|------------------------------|
|------------------------------|
|-3h5p3----------------3--5--0-|
|------h5----3h5p3-----3--5--0-|
|------------------5---3--5--0-|

thats it, if you have any comments email me at antdewar1@hotmail.co.uk
Добавлено: 24.07.2012
Другие материалы по этой песне:

Страница создана 17.04.2012
http://primanota.ru/every-time-i-die/kill-the-music-chords.htm
Привет, Гость.
Предлагаем пройти революционный курс по гитаре.
Подарок от PrimaNota.Ru, забирай!