PrimaNota.ru - самый крупный в мире бесплатный архив песенных текстов, аккордов, табулатур и нот


Every Time I Die - Inrihab - таба, видео

Регистрация Запомнить меня
Войти через:  Facebook Google Twitter Vk Yandex Mail.ru

Every Time I Die - Inrihab - таба, видео

Печатать
Просмотров: 141
Every Time I Die
INRIhab
The Big Dirty
Drop D Tuning


Intro/Verse Riff  "I Tied The Devil To The Tracks...": 

e:---------------------------------------------------------------------:
b:---------------------------------------------------------------------:
g:-10-10-10~~-------------------------------------------------5-7^-5---:
d:-10-10-10~~-------------3--------3-5-3-------3--------3-5-7--------0~:
a:-8--8--8~~------3-3-------5--3-5-------5-3-5---5--3-5--------------0~:
d:------------0~~-----0-0--------------------------------------------0~:


Pre Chorus: "Will We Keep Hell In Our Hearts...
(not quite got this part yet, but heres the basics)

e:---------------------------------------:
b:---------------------------------------:
g:---------------------------------------:
d:---------------------6-6-6-6-6-6-6-6-6-:
a:-------------------5/4-4-4-4-4-4-4-4-4-:
d:-0-0---0-0---0-0-----------------------:


Chorus "Give Me The Strength...":

e:-------------------------------------------------------:
b:-------------------------------------------------------:
g:-------------------------------------------------------:
d:----0-0-0-------0-0-0-------0-0-0-12-11-11-11-11-11-12-:  Repeat as many
a:----0-0-0-------0-0-0-------0-0-0-12-11-11-11-11-11-12-:  times needed
d:-16-0-0-0-13-16-0-0-0-13-16-0-0-0-12-11-11-11-11-11-12-:


Second Verse "I Walked Across The Muddy Stream..."

e:-------------------------------------:
b:-------------------------------------:
g:-10~~--------------------------------:     Repeat 3 Times
d:-10~~---6-0-0-0-0-0------13-16-0-0-0-:
a:-8~~~---6-0-0-0-0-0------13-16-0-0-0-:
d:------3/6-0-0-0-0-0------13-16-0-0-0-:


2nd Verse Continue "We Never Loved Ourselves..."

e:-------------------------------------------------:
b:-------------------------------------------------:
g:-------------------------------2-2-2-2-2-2-2-2-2-:
d:-3-3-3-3-3-3-3-3-3-3-3-3-3-3-6-0-0-0-0-0-0-0-0-0-:
a:-3-3-3-3-3-3-3-3-3-3-3-3-3-3-6-0-0-0-0-0-0-0-0-0-:
d:-3-3-3-3-3-3-3-3-3-3-3-3-3-3-6-0-0-0-0-0-0-0-0-0-:

Back into Verse, Pre-Chorus and Chorus.


Final Riff "...And In My 27th Year I Was Dragged..."

e:--------------------------------------------------------------------:
b:--------------------------------------------------------------------:
g:--------------------------------5---------------------------------5-: X2
d:-----3-------3-5-3--------3---3-5------3--------3-5-6-------3---3-5-:
a:-3-5---5------------5-3-5---5-3-3--3-5---5-3-5--------5-3-5---5-3-3-:
d:------------------------------3---------------------------------3---:

Then play main riff till the end.


Any Suggestions
Doms_BeerCo@hotmail.com

Добавлено: 16.07.2012
Другие материалы по этой песне:

Страница создана 05.03.2012
http://primanota.ru/every-time-i-die/inrihab-chords.htm
Привет, Гость.
Предлагаем пройти революционный курс по гитаре.
Подарок от PrimaNota.Ru, забирай!