PrimaNota.ru - самый крупный в мире бесплатный архив песенных текстов, аккордов, табулатур и нот


Every Time I Die - Indian Giver - таба, видео

Регистрация Запомнить меня
Войти через:  Facebook Google Twitter Vk Yandex Mail.ru

Every Time I Die - Indian Giver - таба, видео

Печатать
Просмотров: 121
Уроки эстрадного вокала в Санкт-Петербурге
VERSE
e|--------------------------------------------------------------------------------------|
B|--------------------------------------------------------------------------------------|
G|6---6-6---6---6-6/7-7---6-6/10-10-7-7-6-6---6-6---6---6-6/10-10-12-12-11-11-15---14---|
D|x---x-x---x---x-x/x-x---x-x-x--x--x-x-x-x---x-x---x---x-x-x--x--x--x--x--x--x(x2)x(x3)| 
A|4-0-4-4-0-4-0-4-4/5-5-0-4-4/8--8--5-5-4-4-0-4-4-0-4-0-4-4/8--8--10-10-9--9--13---12---|
A|--0-----0---0---------0-------------------0-----0---0---------------------------------|
    


CHORUS                         BRIDGE          OUTRO
e|------------------------|---|-------------|-|-----------------------------------------|
B|------------------------|---|-------------|-|-----------------------------------------|
G|------------------------|---|-------------|-|----------------------------(7)----------|
D|0~~~0~~~0~~--7~~~7~~~7~~|---|-0-----------|-|----(7/9-9)----(7)----(7/9-9)5(9-9-7-9-9)|
A|0~~~0~~~0~~--6~~~5~~~5~~|---|-0-let-ring--|-|-0-0-5/7-7--0-0-5~-0-0-5/7-7---7-7-5-7-7-|
A|0~~~0~~~0~~--6~~~5~~~5~~|---|-0-----------|-|-0-0--------0-0----0-0-------------------|
   123 123 12   123 123 12                      "As long as your name is on my list..."


VERSE 1 (x2)
CHORUS
VERSE 2 (x2)
CHORUS
BRIDGE
OUTRO (x2)
OUTRO w/VOCALS (x4)
OUTRO w/HARMONY (x2)
CHORUS (x4)
Добавлено: 02.11.2013
Другие материалы по этой песне:

Страница создана 24.07.2013
http://primanota.ru/every-time-i-die/indian-giver-chords.htm
Привет, Гость.
Предлагаем пройти революционный курс по гитаре.
Подарок от PrimaNota.Ru, забирай!