PrimaNota.ru - самый крупный в мире бесплатный архив песенных текстов, аккордов, табулатур и нот


Every Time I Die - Imitation Is The Sincerest Form Of Battery - таба, видео

Регистрация Запомнить меня
Войти через:  Facebook Google Twitter Vk Yandex Mail.ru

Every Time I Die - Imitation Is The Sincerest Form Of Battery - таба, видео

Печатать
Просмотров: 135
----------------------------------------------------------------------------
                        Imitation is the Sincerest Form of Battery
                                   Every Time I Die
----------------------------------------------------------------------------
Tabbed by: Charliexbear570
Email: BigDirty94@yahoo.com

Tuning:Drop D

e|-------------------------|
B|-------------------------|
G|-------------------------|
D|-5-4---------------------|x4
A|-5-4---3-4-7-4--3-4-7-4--|
D|-5-4---3-4-7-4--3-4-7-4--|

e|-------------------------------------------------------------------------|
B|-------------------------------------------------------------------------|
G|-------------------------------------------------------------------------|
D|-------------------------------------------------------------------------|
A|-0-0---------------------------------------------------------------------|
D|-0-0-7-7-7-7-7-7-7-7-7-000-7-7-7-7-0-7-7-7-7-7-7-7-7-7-000-7-7-7-7-0-----|
   . .

e|-------------------------|
B|-------------------------|
G|-------------------------|
D|-5-4---------------------|x2
A|-5-4---3-4-7-4--3-4-7-4--|
D|-5-4---3-4-7-4--3-4-7-4--|

e|-------------------------------------------------------------------------|
B|-------------------------------------------------------------------------|
G|-------------------------------------------------------------------------|
D|-------------------------------------------------------------------------|
A|-0-0---------------------------------------------------------------------|
D|-0-0-7-7-7-7-7-7-7-7-7-000-7-7-7-7-0-7-7-7-7-7-7-7-7-7-000-7-7-7-7-0-----|
   . .

e|----------------------------------------------------|
B|----------------------------------------------------|
G|----------------------------------------------------|
D|----------------------------------------------------|
A|----------------------------------------------------|
D|7-7-7-7-7-7-7-7-7-000-7-7-7-7-0-7-7-7-7-7-7-7-7--7--|

e|-------------------------------------------------------------------|
B|-------------------------------------------------------------------|
G|-------------------------------------------------------------------|
D|---------------------------------------8---------------------------|x4
A|-4-3--3-10-7--7--9-----9-------4--3--3-6-7-7--12---12--12---12-----|
D|-4-3--3-10-7--7----0--0---0--0--4-3--3---7-7-----0---0----0----0---|
        .                           .

e|----------------------------------------------------|
B|----------------------------------------------------|
G|----------------------------------------------------|
D|----------------------------------------------------|
A|-9-----9-----9-----9--9--9-----9--9-----9--9--------|
D|---0--0--0--0--0--0--0--0--0--0--0--0--0--0--0--0---|

e|-------------------------------------------------------------------------|
B|-------------------------------------------------------------------------|
G|-------------------------------------------------------------------------|
D|-------------------------------------------------------------------------|
A|-12-------12-------12-------12---12---12-------12---12------12---12------|
D|----0-0-0----0-0-0----0-0-0----0----0----0-0-0----0---0-0-0----0----0-0-0|
      . . .    . . .    . . .    .    .    . . .    .   . . .    .    . . .

e|-------------|
B|-------------|
G|-------------|
D|-5-4---5-4---|
A|-5-4---5-4---|
D|-5-4---5-4---|

e|-------------------------|
B|-------------------------|
G|-------------------------|
D|-5-4---------------------|x2
A|-5-4---3-4-7-4--3-4-7-4--|
D|-5-4---3-4-7-4--3-4-7-4--|

e|-------------------------------------------------------------------------|
B|-------------------------------------------------------------------------|
G|-------------------------------------------------------------------------|
D|-------------------------------------------------------------------------|
A|-0-0---------------------------------------------------------------------|
D|-0-0-7-7-7-7-7-7-7-7-7-000-7-7-7-7-0-7-7-7-7-7-7-7-7-7-000-7-7-7-7-0-----|
   . .

e|-------------------------------------------------------------------------|
B|-------------------------------------------------------------------------|
G|-------------------------------------------------------------------------|
D|-5-4------------------------------------------0--0--0--0-0-0--0--000-----|
A|-5-4---3-4-7-4--3-4-7-4--0-0------------------0--0--0--0-0-0--0--000-----|
D|-5-4---3-4-7-4--3-4-7-4--0-0-5-4---4-----7-3--0--0--0--0-0-0--0--000-----|
                           . .                                     ...

e|----------------------------------------------------------------|
B|----------------------------------------------------------------|
G|----------------------------------------------------------------|
D|------------------0--0--0--0-0-0--0--000--5-4----0--3-----------|
A|------------------0--0--0--0-0-0--0--000--5-4----0--3-----------|
D|-5-4---4-----7-3--0--0--0--0-0-0--0--000--5-4----0--3-----/21---|
                                       ...

e|-------------------------------------------------------------------|
B|-------------------------------------------------------------------|
G|-------------------------------------------------------------------|
D|-------------------------------------------------------------------|
A|-------------------------------------------------------------------|
D|-7-7-7-7-7-7-7-7-7-000-7-7-7-7-0-7-7-7-7-7-7-7-7-7-000-7-7-7-7-0---|

e|----------------------------------------------------|
B|----------------------------------------------------|
G|----------------------------------------------------|
D|----------------------------------------------------|
A|----------------------------------------------------|
D|7-7-7-7-7-7-7-7-7-000-7-7-7-7-0-7-7-7-7-7-7-7-7--7--|

e|--------------------------------------------------------------------|
B|--------------------------------------------------------------------|
G|--------------------------------------------------------------------|
D|---------------------------------------8----------------------------|
A|-4-3--3-10-7--7--9-----9-------4--3--3-6-7-7--12---12--12---12------|
D|-4-3--3-10-7--7----0--0---0--0-4--3--3---7-7-----0---0----0----0----|
        .                              .

e|---------------------------------------------------------------------|
B|---------------------------------------------------------------------|
G|---------------------------------------------------------------------|
D|---------------------------------------8-----------------------------|
A|-4-3--3-10-7--7--9-----9-------4--3--3-6-7-7--12-12-12-12-12-12-12-12|
D|-4-3--3-10-7--7----0--0---0--0-4--3--3---7-7-------------------------|
        .                              .

e|--------------------------------------------------------------------|
B|--------------------------------------------------------------------|
G|--------------------------------------------------------------------|
D|---------------------------------------8----------------------------|x2
A|-4-3--3-10-7--7--9-----9-------4--3--3-6-7-7--12---12--12---12------|
D|-4-3--3-10-7--7----0--0---0--0-4--3--3---7-7-----0---0----0----0----|
        .                              .

e|----------------------------------------------------|
B|----------------------------------------------------|
G|----------------------------------------------------|
D|----------------------------------------------------|
A|-9-----9-----9-----9--9--9-----9--9-----9--9--------|
D|---0--0--0--0--0--0--0--0--0--0--0--0--0--0--0--0---|

e|-------------------------------------------------------------------------|
B|-------------------------------------------------------------------------|
G|-------------------------------------------------------------------------|
D|-------------------------------------------------------------------------|
A|-12-------12-------12-------12---12---12-------12---12------12---12------|
D|----0-0-0----0-0-0----0-0-0----0----0----0-0-0----0---0-0-0----0----0-0-0|
      . . .    . . .    . . .    .    .    . . .    .   . . .    .    . . .

e|------------------------------------|
B|------------------------------------|
G|------------------------------------|
D|-5-4----5-4----5-4-----------8------|
A|-5-4----5-4----5-4----4-3--3-6-7\---|
D|-5-4----5-4----5-4----4-3--3---7\---|

| /  slide up
| \  slide down
| .  palm mute


Добавлено: 20.07.2012
Другие материалы по этой песне:

Страница создана 15.05.2012
http://primanota.ru/every-time-i-die/imitation-is-the-sincerest-form-of-battery-chords.htm
Привет, Гость.
Предлагаем пройти революционный курс по гитаре.
Подарок от PrimaNota.Ru, забирай!