PrimaNota.ru - самый крупный в мире бесплатный архив песенных текстов, аккордов, табулатур и нот


Every Time I Die - I Suck Blood - таба, видео

Регистрация Запомнить меня
Войти через:  Facebook Google Twitter Vk Yandex Mail.ru

Every Time I Die - I Suck Blood - таба, видео

Печатать
Просмотров: 105
Уроки эстрадного вокала в Санкт-Петербурге
-----------------------------------------------------------------
I Suck [Blood] - Every Time I Die
-----------------------------------------------------------------
Tabbed by: Jake Miller (millarso)
Email: millarso2.0@gmail.com
Tuning: Drop D
-----------------------------------------------------------------

Intro/Section 1
Both Guitars
e|--0---|
B|--0---|
G|--0---|
D|--0---|
A|--0---|
D|--0---|

e|-------------------------------|
B|-------------------------------|
G|-------------------------------|
D|-------------------------------|x3
A|-3h55555--3h55555--6---6-6---6-|
D|---------------------3-----3---|

(The low D string is hard to hear distinctly here but I think this sounds fine)
e|--------------------------------------|
B|--------------------------------------|
G|--------------------------------------|
D|------------------------------------6-|
A|-3h55555--3h55555-------------------6-|
D|------------------9p8p0-7p6p0-6p8p0-6-|

Section 2
Both Guitars
e|-------------------------------|
B|-------------------------------|
G|-------------------------------|
D|-------------------------------|x3
A|-3h55555--3h55555--6---6-6---6-|
D|---------------------3-----3---|

Guitar 1
e|-------------------------6h8-8b10r8-|
B|-----------------6h88888------------|
G|---------5h77777--------------------|
D|-5h77777----------------------------|
A|------------------------------------|
D|------------------------------------|

Guitar 2
e|------------------------------------|
B|-------------------------4h6-6b8r6--|
G|-----------------3h55555------------|
D|---------3h55555--------------------|
A|-3h55555----------------------------|
D|------------------------------------|

Section 3
Both Guitars
e|--------------------------------------------------------------|
B|--------------------------------------------------------------|
G|--------------------------------------------------------------|
D|-x--------------------------6--x-------8-6-4-6-(4-1---------)-|x2
A|-x-(x12)--------------------6--x-(x12)-8-6-4-6-(4-1-2nd-time)-|
D|-x--------9p8p0-7p6p0-6p8p0-6--x-------8-6-4-6-(4-1---------)-|

Section 2 (x1)
Section 3 (x1)

Section 4
Both Guitars
e|---------------|
B|---------------|
G|---------------|
D|--8-6-4-6-4-1--|x3
A|--8-6-4-6-4-1--|
D|--8-6-4-6-4-1--|

Not too sure on the lead guitar part here...
e|-----guitar 1---------------------|
B|-(6~----9--6b---5~)---------------|
G|-(------------6---)---------------|
D|--8~------------7~---////////////-|
A|--8~------------7~---/pick slide/-|
D|--8~------------7~---////////////-|

Section 5
Both Guitars (Guitar 1 in parentheses)
e|----------------------------------------------------------------------|
B|---------------------------------------------------------------16--16-|
G|------------------------(5-8)----------------------------------14--14-|
D|---------------(5-7-0-7)-3-6-----------------------------------13--13-|x2
A|----------------3-5-0-5-----------------------------------------------|
D|-3-000000-(x3)----------------3-000000-3-000000-3-00-3-00-3-00--------|

e|------------------------------|
B|------16--16------16--16------|
G|------14--14------14--14------|
D|------13--13------13--13--0~--|
A|--------------------------0~--|
D|-3-00--------3-00---------0~--|

Section 6 (x2)
Both Guitars
e|--------------------------------------------------------|
B|--------------------------------------------------------|
G|--------------------------------------------------------|
D|--------------------------------------------------------|
A|-3-0--0--0--5-3-6--6--6-5-3-5-3-0--0--0-5-3-6---0-0-0-0-|
D|-3-0--0--0--5-3-6--6--6-5-3-5-3-0--0--0-5-3-6---0-0-0-0-|
                        . . . .                   . . . .

                             1st Ending               2nd Ending
e|-----------------------|----------------|-----------------------------------|
B|-----------------------|-------------6b-|-----------------------------------|
G|-----------------------|-------------6b-|-----------------------------------|
D|-----------------------|----------------|-----------------------------------|
A|-----------------------|----------------|-------------------6-5-3-5-6-5-3-5-|
D|-3-0---5-3-6---6-5-3-5-|-3-0---5-3-6----|-3-0--0--0--5-3-6--6-5-3-5-6-5-3-5-|
                                                              . . . . . . . .
Section 7 (similar to Section 2)
Both Guitars
e|------------------------------------------------------------|
B|------------------------------------------------------------|
G|------------------------------------------------------------|
D|-----guitar-1---------------------------------------(7b)----|
A|-(3h55555--3h55555)--6---6-6---6--(3h55555-3h55555)--6b-(3)-|
D|-----------------------3-----3---------------------------3--|

e|-----------------------------------------------------------(6h8-8b10r8)--|
B|--------------------------------------------------(6h88888)-4h6-6b8r6----|
G|-----------------------------------------(5h77777)-3h55555---------------|
D|--------------------------------(5h77777)-3h55555------------------------|
A|-(3h55555-3h55555)--6---6-6---6--3h55555---------------------------------|
D|----------------------3-----3--------------------------------------------|

Section 3 (2nd time only)
Section 2 (x2)
Section 3 (Whole thing)

Outro
e|----------------------|
B|----------------------|
G|----------------------|
D|--x-------8-6-4-6-4-1-|
A|--x-(x36)-8-6-4-6-4-1-|
D|--x-------8-6-4-6-4-1-|

UPDATE 3/21/13: Fixed several sections that were a little off, should be
getting close to spot on now.
Please rate & comment.
Thanks, 
millarso
Добавлено: 04.10.2013
Другие материалы по этой песне:
  • Аккорды и текст

Страница создана 04.06.2013
http://primanota.ru/every-time-i-die/i-suck-blood-chords.htm
Привет, Гость.
Предлагаем пройти революционный курс по гитаре.
Подарок от PrimaNota.Ru, забирай!