PrimaNota.ru - самый крупный в мире бесплатный архив песенных текстов, аккордов, табулатур и нот


Every Time I Die - Holy Book Of Dilemma - таба, видео

Регистрация Запомнить меня
Войти через:  Facebook Google Twitter Vk Yandex Mail.ru

Every Time I Die - Holy Book Of Dilemma - таба, видео

Печатать
Просмотров: 107
-----------------------------------------------------------------
Holy Book of Dilemma - Every Time I Die
-----------------------------------------------------------------
Tabbed by: Jake Miller (millarso)
Email: millarso2.0@gmail.com
Tuning: Drop D (D A D G B E)
-----------------------------------------------------------------
Section 1 (x2)
Both Guitars
  "Insect lust or insect love..."
e|-------------------------------------------------------|
B|-------------------------------------------------------|
G|-------------------------------------------------------|
D|---------------------------------------------3-5-3-8---|
A|-5------2------------3---2-----5------2------3-5-3-8---|
D|---3--0---3--0-0h2h3---3---3-----3--0---3--0-3-5-3-8---|

e|---------------------------------------------------------|
B|---------------------------------------------------------|
G|---------------------------------------------------------|
D|---------------------------------------------3-5-3-8-5-3-|
A|-5------2-------------2tp------5------2------3-5-3-8-5-3-|
D|---3--0---3--0-3tp-2tp---3tp-----3--0---3--0-3-5-3-8-5-3-|

Section 2 (x2)
Both Guitars
 "There are laws built into..."
e|-----------------------------------------------|
B|-----------------------------------------------|
G|-----------------------------------------------|
D|-------------7-9---------------------7-9---8\--|
A|-3-2---5-3---5-7---5-8---3-2---5-3---5-7---8\--|
D|-3-2-----3---------5-8---3-2-----3---------8\--|
                                                  
                                              2nd time add
e|-----------------------------------------|--------------|
B|-----------------------------------------|--------------|
G|-----------------------------------------|--------------|
D|-------------7-9---------------------0~--|--------4-----|
A|-3-2---5-3---5-7---5-8---3-2---5-3---0~--|--0-2-0-2-3-2-|
D|-3-2-----3---------5-8---3-2-----3---0~--|--0-2-0---3-2-|

Transition 1
Both Guitars
  "Animal art or..."
e|---------------------------|
B|---------------------------|
G|---------------------------|
D|---------------------------|
A|-5------2------------------|
D|---3--0---3--0-(drum fill)-|

Section 3
Both Guitars
  "Boot-legged thoughts or..."
e|-------------------------------------------------------|
B|-------------------------------------------------------|
G|-------------------------------------------------------|
D|---------------------------------------------3-5-3-8---|
A|-5------2------------3---2-----5------2------3-5-3-8---|
D|---3--0---3--0-0h2h3---3---3-----3--0---3--0-3-5-3-8---|

e|-----------------------------------------------------------------|
B|-----------------------------------------------------------------|
G|-----------------------------------------------------------------|
D|------------------------------------------------3-5-3-8-5-3-0~---|
A|-5-------2--------------5tp------------5tp------3-5-3-8-5-3-0~---|
D|---3---0---3--0--3tp-2tp---3tp--3tp-2tp---3tp---3-5-3-8-5-3-0~---|

  "Our mathematics and faiths...    ...devolve"
e|-----------------------------------------------|
B|-----------------------------------------------|
G|-----------------------------------------------|
D|-(0~)----------------------------------------4-|
A|-(0~)----------------------------------0-2-0-2-|
D|-(0~)----------------------------------0-2-0---|

Section 4
Both Guitars
  "Separate hearts are the whole of the law..."
e|--------------------------------------------------|
B|--------------------------------------------------|
G|--------------------------------------------------|
D|-3-2---------7-9----------3-2---------7-9---------|x2
A|-3-2---5-----5-7----------3-2---5-----5-7---------|
D|-3-2-----3~--------5-8~---3-2-----3~--------8~-\--|

Guitar 1
e|--------------------------------------------------|
B|--------------------------------------------------|
G|--------------------------------------------------|
D|-3-3----------------------3-2---------7-9---------|
A|-3-2---5------------------3-2---5-----5-7---------|
D|-3-2-----3~--7-9~--5-8*---3-2-----3~--------8~-\--|

Guitar 2
e|--------------------------------------------------|
B|--------------------------------------------------|
G|--------------------------------------------------|
D|-3-2---------7-9----------3-2---------7-9---------|
A|-3-2---5-----5-7----------3-2---5-----5-7---------|
D|-3-2-----3~--------5-8~---3-2-----3~--------8~-\--|

Continue variations of that last riff to a fade out.

My first tab. Please let me know if I did a crap job or not.
Please rate & comment.
Thanks,
millarso

UPDATE 3/21/13: Majorly overhauled this tab. I like it a lot better now.
Добавлено: 11.09.2013
Другие материалы по этой песне:
  • Аккорды и текст

Страница создана 11.09.2013
http://primanota.ru/every-time-i-die/holy-book-of-dilemma-chords.htm
Привет, Гость.
Предлагаем пройти революционный курс по гитаре.
Подарок от PrimaNota.Ru, забирай!