PrimaNota.ru - самый крупный в мире бесплатный архив песенных текстов, аккордов, табулатур и нот


Every Time I Die - Hit Of The Search Party - текст песни, таба, видео

Регистрация Запомнить меня
Войти через:  Facebook Google Twitter Vk Yandex Mail.ru

Every Time I Die - Hit Of The Search Party - текст песни, таба, видео

Печатать
Просмотров: 91
            Hit of the Search Party - Every Time I Die

Tabbed by: Charliexbear570
Email: BigDirty94@yahoo.com

Tuning: Drop D

Intro

E----------------------------------------------------------------|
B----------------------------------------------------------------|
G----------------------------------------------------------------|
D---4-3------------------------------------------------4-3-------|
A---3-2------3----2-------3---------3----2-------3-----3-2-------|
D---4-3--0-4--0-3---0-3-4---4-3-0-4--0-3---0-3-4---4-0-4-3-------|

E------------------------------|
B------------------------------|
G------------------------------|
D---00-00-00-00-00-00-4-3------|
A---00-00-00-00-00-00-3-2------|
D---00-00-00-00-00-00-4-3------|

E-------------------------------------------------------------|
B-------------------------------------------------------------|
G-------------------------------------------------------------|
D---------------------------------------------------4-3-------|
A---------3----2-------3---------3----2-------3-----3-2-------|
D-----0-4--0-3---0-3-4---4-3-0-4--0-3---0-3-4---4-0-4-3-------|

E----------------------------------------------------------------|
B----------------------------------------------------------------|
G----------------------------------------------------------------|
D---00-00-00-00-00-00-4/3-00-00-00-00-00-4-3---------------------|
A---00-00-00-00-00-00-3/2-00-00-00-00-00-3-2---------------------|
D---00-00-00-00-00-00-4/3-00-00-00-00-00-4-3---------------------|

E-------------------------------------------------------------|
B-------------------------------------------------------------|
G-------------------------------------------------------------|
D---------------------------------------------------4-3-------|
A---------3----2-------3---------3----2-------3-----3-2-------|
D-----0-4--0-3---0-3-4---4-3-0-4--0-3---0-3-4---4-0-4-3-------|

E-----------------------------|
B-----------------------------|
G-----------------------------|
D---00-00-00-00-00-00-4-3-----|
A---00-00-00-00-00-00-3-2-----|
D---00-00-00-00-00-00-4-3-----|

E-------------------------------------------------------------|
B-------------------------------------------------------------|
G-------------------------------------------------------------|
D---------------------------------------------------4-3-------|
A---------3----2-------3---------3----2-------3-----3-2-------|
D-----0-4--0-3---0-3-4---4-3-0-4--0-3---0-3-4---4-0-4-3-------|

E--------------------------------------------------------|
B--------------------------------------------------------|
G--------------------------------------------------------|
D---00-00-00-00-00-00-4-3---00-00-00-00-00-00-00-00------|
A---00-00-00-00-00-00-3-2---00-00-00-00-00-00-00-00------|
D---00-00-00-00-00-00-4-3---00-00-00-00-00-00-00-00------|


guitar 1

E-----------------------------------------------------------|
B-----141414141414-101010101010--------------------10-------|
G-----171717171717-131313131313----(last one)-ring-13-------|X4
D-----------------------------------------------------------|
A-----------------------------------------------------------|
D-----------------------------------------------------------|


guitar 2

E----------------------------------------------------------------|
B----------------------------------------------------------------|
G----------------------------------------------------------------|
D-------7--------------------------------------------------------|
A------11--keep that going till the end and ring it--------------|
D----------------------------------------------------------------|

E------------------|
B------------------|
G------------------|
D---44-44-0-3-0----|x4
A---33-33-0-3-0----|
D---44-44-0-3-0----|

guitar 1

E-----------------------------------------------------------|
B-----141414141414-101010101010--------------------10-------|
G-----171717171717-131313131313----(last one)-ring-13-------|X4
D-----------------------------------------------------------|
A-----------------------------------------------------------|
D-----------------------------------------------------------|

guitar 2

E----------------------------------------------------------------|
B----------------------------------------------------------------|
G----------------------------------------------------------------|
D-------7--------------------------------------------------------|
A------11--keep that going till the end and ring-----------------|
D----------------------------------------------------------------|

E------------------|
B------------------|
G------------------|
D---44-44-0-3-0----|x9
A---33-33-0-3-0----|
D---44-44-0-3-0----|

E-------------------------------|
B-------------------------------|
G-------------------------------|
D--00000000000000--4-3----------|
A--00000000000000--3-2----------|
D--00000000000000--4-3----------|

E-------------------------------------------------------------|
B-------------------------------------------------------------|
G-------------------------------------------------------------|
D---------------------------------------------------4-3-------|
A---------3----2-------3---------3----2-------3-----3-2-------|
D-----0-4--0-3---0-3-4---4-3-0-4--0-3---0-3-4---4-0-4-3-------|

E---------------------------------------------|
B---------------------------------------------|
G---------------------------------------------|
D---000000000000--4-3-0-0-0-0-0-0-0-0-0-4-3---|
A---000000000000--3-2-0-0-0-0-0-0-0-0-0-3-2---|
D---000000000000--4-3-0-0-0-0-0-0-0-0-0-4-3---|

E-------------------------------------------------------------|
B-------------------------------------------------------------|
G-------------------------------------------------------------|
D---------------------------------------------------4-3-------|
A---------3----2-------3---------3----2-------3-----3-2-------|
D-----0-4--0-3---0-3-4---4-3-0-4--0-3---0-3-4---4-0-4-3-------|

E---------------------------------------------|
B---------------------------------------------|
G---------------------------------------------|
D---000000000000--4-3-0-0-0-0-0-0-0-0-0-4-3---|
A---000000000000--3-2-0-0-0-0-0-0-0-0-0-3-2---|
D---000000000000--4-3-0-0-0-0-0-0-0-0-0-4-3---|

E----------------------------------------|
B----------------------------------------|
G----------------------------------------|
D----------------------------------------|
A----------------------------------------|
D---00000000000000000000000000000000-----|

E-----------------------------------------|
B-----------------------------------------|
G-----------------------------------------|X4
D---4-3-----------------------------------|
A---3-2-------5-----5--------4-5-4---4----|
D---4-3-0-3-6---6-0---6-0-3-6------6------|

E------------------|
B------------------|
G------------------|
D---44-44-0-3-0----|X2
A---33-33-0-3-0----|
D---44-44-0-3-0----|

guitar 2

E-----------------|
B-----------------|
G-----------------|
D---44----0-3-0---|X2
A---33----0-3-0---|
D---44----0-3-0---|

E---------------------------------------------|
B---------------------------------------------|
G---------------------------------------------|
D---444444-----------4444---------------------|X2
A---333333-----3-----3333------3-----2--------|
D---444444-3-4---4-0-4444--0-4---0-3---0-3----|

E--------------------------------------|
B------------------fast----------------|
G--------------------------------------|
D---44444444----40004000400043---------|
A---33333333----30003000300032---------|
D---44444444----40004000400043-x4------|

E----------------------------------------------------------|
B----------------------------------------------------------|
G----------------------------------------------------------|
D----------------------------------------------------------|X2
A---------3----2-------3---------3----2-------3------------|
D-----0-4--0-3---0-3-4---4-3-0-4--0-3---0-3-4---4-3--------|

E---------------------------------------------|
B---------------------------------------------|
G---------------------------------------------|
D---000000000000--4-3-0-0-0-0-0-0-0-0-0-4-3---|
A---000000000000--3-2-0-0-0-0-0-0-0-0-0-3-2---|
D---000000000000--4-3-0-0-0-0-0-0-0-0-0-4-3---|

E----------------------------------------------------------|
B----------------------------------------------------------|
G----------------------------------------------------------|
D----------------------------------------------------------| just once
A---------3----2-------3---------3----2-------3------------|
D-----0-4--0-3---0-3-4---4-3-0-4--0-3---0-3-4---4-3--------|

E---------------------------------------------|
B---------------------------------------------|
G---------------------------------------------|
D---000000000000--4-3-0-0-0-0-0-0-0-0-0-4-3---|
A---000000000000--3-2-0-0-0-0-0-0-0-0-0-3-2---|
D---000000000000--4-3-0-0-0-0-0-0-0-0-0-4-3---|

E-------------------------------|
B-------------------------------|
G-------------------------------|
D----00-00-00-00-00-00-4-3------|
A----00-00-00-00-00-00-3-2------|
D----00-00-00-00-00-00-4-3------|

E-----------------------------------------------------|
B-----------------------------------------------------|
G-----------------------------------------------------|
D----00-00-00-00-00-00-00--------00-00-00-00-4-3------|X4
A----00-00-00-00-00-00-00--------00-00-00-00-3-2------|
D----00-00-00-00-00-00-00--------00-00-00-00-4-3------|

E-----------------------|
B-----------------------|
G-----------------------|
D----44-44-0-3-0-4------|
A----33-33-0-3-0-3------|
D----44-44-0-3-0-4------|
Добавлено: 20.05.2012
Другие материалы по этой песне:
  • Аккорды и текст

Страница создана 23.03.2012
http://primanota.ru/every-time-i-die/hit-of-the-search-party-chords.htm
Привет, Гость.
Предлагаем пройти революционный курс по гитаре.
Подарок от PrimaNota.Ru, забирай!