PrimaNota.ru - самый крупный в мире бесплатный архив песенных текстов, аккордов, табулатур и нот


Every Time I Die - Guitarred And Feathered - текст песни, таба, видео

Регистрация Запомнить меня
Войти через:  Facebook Google Twitter Vk Yandex Mail.ru

Every Time I Die - Guitarred And Feathered - текст песни, таба, видео

Печатать
Просмотров: 205
Уроки эстрадного вокала в Санкт-Петербурге
Gtr I (D A D G B E) - 'Untitled'
Gtr II (D A D G B E) - 'Untitled'
Gtr III (E A D G B E) - 'Untitled'

    Q=180
   4/4
    Gtr I
        PM
    E E e Q  E  E E   E Q  E E E E E
||------------------|-----------------||
||o-----------------|----------------o||
||------------------|-----------------||
||------------------|-----------------||
||o-1-3-0-1-------3-|----------1-----o||
||--1-3-0-1--0--4---|-4-3--0-2---2-1--||
|
|   Gtr II
|       PM
|   E E e Q  Q.       W
||------------------|-----------------||
||o-----------------|----------------o||
||------------------|-----------------||
||------------------|-----------------||
||o-1-3-0-1---------|----------------o||
||--1-3-0-1---------|-----------------||


      PM   PM|   PM|     PM|   PM|   PM|   PM|
  E E e Q  s s E s s   E s s E s s E s s E s s
|--------------------|----------------------------|
|--------------------|----------------------------|
|--------------------|----------------------------|
|--------------3-----|-1-----1-----3-----1--------|
|-1-3-0-1------3-----|-1-----1-----3-----1--------|
|-1-3-0-1--0-0-3-0-0-|-1-0-0-1-0-0-3-0-0-1-0-0----|
|
|     PM   PM|   PM|     PM|   PM|   PM|   PM|
| E E e Q  s s E s s   E s s E s s E s s E s s
|--------------------|----------------------------|
|--------------------|----------------------------|
|--------------------|----------------------------|
|--------------3-----|-1-----1-----3-----1--------|
|-1-3-0-1------3-----|-1-----1-----3-----1--------|
|-1-3-0-1--0-0-3-0-0-|-1-0-0-1-0-0-3-0-0-1-0-0----|


 4/4
      PM   PM|   PM|     PM|   PM|   PM|   PM|
  E E e Q  s s E s s   E s s E s s E s s E s s   E E E Q  E E E
|--------------------|-------------------------|------------------|
|--------------------|-------------------------|------------------|
|--------------------|-------------------------|------------------|
|--------------3-----|-1-----1-----3-----1-----|------------------|
|-1-3-0-1------3-----|-1-----1-----3-----1-----|---3----------1---|
|-1-3-0-1--0-0-3-0-0-|-1-0-0-1-0-0-3-0-0-1-0-0-|-4---4-3--0-2-----|
|
|     PM   PM|   PM|     PM|   PM|   PM|   PM|
| E E e Q  s s E s s   E s s E s s E s s E s s   E E E Q  E E E
|--------------------|-------------------------|------------------|
|--------------------|-------------------------|------------------|
|--------------------|-------------------------|------------------|
|--------------3-----|-1-----1-----3-----1-----|------------------|
|-1-3-0-1------3-----|-1-----1-----3-----1-----|---3----------1---|
|-1-3-0-1--0-0-3-0-0-|-1-0-0-1-0-0-3-0-0-1-0-0-|-4---4-3--0-2-----|


 4/4
  E Q  E E E E H    H       H       E       E E E Q  E E E
|---------------------------------------||--------------------|
|---------------------------------------||o-------------------|
|---------------------------------------||--------------------|
|---------------------------------------||--------------------|
|----------2----------------------------||o---3----------1----|
|-2-1--0-3---3-2------------------------||--4---4-3--0-2------|
|
| E Q  E E E E Q  E E E E E E E E E E E     E E E Q  E E E
|---------------------------------------||--------------------|
|---------------------------------------||o-------------------|
|--------------4--4-4-4-4-4-4-4-4-4-4-4-||--------------------|
|---------------------------------------||--------------------|
|----------2---3--3-3-3-3-3-3-3-3-3-3-3-||o---3----------1----|
|-2-1--0-3---3--------------------------||--4---4-3--0-2------|


 4/4
  Gtrs I, II
                           PM|   PM|   PM|     PM|   PM|
  E Q  E E E E E   +E  E E s s E s s E s s   E s s E s s E E E E
|----------------|-------------------------|------------------------|
|----------------|-------------------------|------------------------|
|----------------|-------------------------|------------------------|
|----------------|-------4-----3-----2-----|-4-----3----------------|
|----------2-----|-------3-----2-----1-----|-3-----2-------3--------|
|-2-1--0-3---3-2-|-(2)-0-4-0-0-3-0-0-2-0-0-|-4-0-0-3-0-0-4---4-3----|


 4/4
      PM------------------|
  +E  e e e e e e e e e e e     E E E Q  E E E   E Q  E E E E E
|----------------------------||----------------|-------------------|
|---------------------------o||----------------|-------------------|
|----------------------------||----------------|-------------------|
|----------------------------||----------------|-------------------|
|-----0-0-0-0-0-0-0-0-0-0-0-o||---3----------1-|----------2--------|
|-(3)-0-0-0-0-0-0-0-0-0-0-0--||-4---4-3--0-2---|-2-1--0-3---3-2----|


 4/4                 2/4   4/4
      PM  PM  PM
  +E  E E E E E E E   H      E E E Q  E E E   E Q  E E E E E
|-------------------|---||------------------|-------------------|
|-------------------|---||o-----------------|-------------------|
|-------------------|---||------------------|-------------------|
|-------4---3---2---|---||------------------|-------------------|
|-------3---2---1---|---||o----3----------1-|----------2--------|
|-(2)-0-4-0-3-0-2---|---||---4---4-3--0-2---|-2-1--0-3---3-2----|


        PM|   PM|   PM|     PM|   PM|
  E E E s s E s s E s s   E s s E s s E E E  E
|-----------------------|-------------------------|
|-----------------------|-------------------------|
|-----------------------|-------------------------|
|-----4-----3-----2-----|-4-----3-----------------|
|-----3-----2-----1-----|-3-----2-------3---------|
|-2p0-4-0-0-3-0-0-2-0-0-|-4-0-0-3-0-0-4---4-[3]b4-|


      PM------------------|
  +E  e e e e e e e e e e e
|----------------------------||
|---------------------------o||
|----------------------------||
|----------------------------||
|-----0-0-0-0-0-0-0-0-0-0-0-o||
|-(3)-0-0-0-0-0-0-0-0-0-0-0--||


                           1/4      4/4
    PM|   PM|   PM|   PM|
  E s s E s s E s s E s s   E E      E E E Q  E E E   E E E E E E E E
|-------------------------|------||-----------------|-------------------||
|-------------------------|------||o----------------|------------------o||
|-------------------------|------||-----------------|-------------------||
|-4-----3-----2-----4-----|-3----||-----------------|-------------------||
|-3-----2-----1-----3-----|-2----||o-3-----2--2-2-2-|-2-2-2-2-2-2-2-2--o||
|-4-0-0-3-0-0-2-0-0-4-0-0-|-3----||----4-0-3--3-3-3-|-3-3-3-3-3-3-3-3---||


                                   2/4     4/4
  E E E Q  E E E   E E E E E E Q    Q.  E   +E  E E E E E E E
|----------------|----------------|-------|----------------------|
|----------------|----------------|-------|----------------------|
|----------------|----------------|-------|----------------------|
|----------------|----------------|-----3-|-(3)-3-3-3-3-3-3-3----|
|-3-----2--2-2-2-|-2-2-2-2-2------|-----5-|-(5)-5-5-5-5-5-5-5----|
|---4-0-3--3-3-3-|-3-3-3-3-3------|-------|----------------------|


  E E E E E E E E   E E E E E E E E   E E E E E E E E   E E E E E E E E
|-----------------|-----------------|-----------------|-----------------|
|-----------------|-----------------|-----------------|-----------------|
|-----------------|-----------------|-----------------|-----------------|
|-3-3-3-3-3-3-3-3-|-3-3-3-3-3-3-3-3-|-6-6-6-6-6-6-6-6-|-3-3-3-3-3-3-3-3-|
|-5-5-5-5-5-5-5-5-|-4-4-4-4-4-4-4-4-|-7-7-7-7-7-7-7-7-|-5-5-5-5-5-5-5-5-|
|-----------------|-----------------|-----------------|-----------------|


  E E E E E E E E   E E E E E E E E   E E E E E E E E     E E E Q  E E E
|-----------------|-----------------|-----------------||-----------------|
|-----------------|-----------------|-----------------||o----------------|
|-----------------|-----------------|-----------------||-----------------|
|-3-3-3-3-3-3-3-3-|-3-3-3-3-3-3-3-3-|-6-6-6-6-6-6-6-6-||-----------------|
|-5-5-5-5-5-5-5-5-|-4-4-4-4-4-4-4-4-|-7-7-7-7-7-7-7-7-||o---3----------1-|
|-----------------|-----------------|-----------------||--4---4-3--0-2---|


                           PM|   PM|   PM|     PM|   PM
  E Q  E E E E E   +E  E E s s E s s E s s   E s s E s s E E E E
|----------------|-------------------------|------------------------|
|----------------|-------------------------|------------------------|
|----------------|-------------------------|------------------------|
|----------------|-------4-----3-----2-----|-4-----3----------------|
|----------2-----|-------3-----2-----1-----|-3-----2-------3--------|
|-2-1--0-3---3-2-|-(2)-0-4-0-0-3-0-0-2-0-0-|-4-0-0-3-0-0-4---4-3----|


      PM------------------|
  +E  e e e e e e e e e e e     E E E Q  E E E
|----------------------------||----------------|
|---------------------------o||----------------|
|----------------------------||----------------|
|----------------------------||----------------|
|-----0-0-0-0-0-0-0-0-0-0-0-o||---3----------1-|
|-(3)-0-0-0-0-0-0-0-0-0-0-0--||-4---4-3--0-2---|


  E Q  E E E E E   +E  E E s s E s s E E
|----------------|-----------------------|
|----------------|-----------------------|
|----------------|-----------------------|
|----------------|-------4-----3-----2---|
|----------2-----|-------3-----2-----1---|
|-2-1--0-3---3-2-|-(2)-0-4-0-0-3-0-0-2---|


 2/4    4/4
                                       PM----|               PM----|
  H      E E E E E E E E   E E E E E E s s s s   E E E E E E s s s s
|----||------------------|---------------------|------------------------|
|----||o-----------------|---------------------|------------------------|
|----||------------------|---------------------|------------------------|
|----||--3-3-3-3-3-3-3-3-|-3-3-3-3-3-3---------|-3-3-3-3-3-3------------|
|----||o-5-5-5-5-5-5-5-5-|-5-5-5-5-5-5-5-5-5-5-|-4-4-4-4-4-4-4-4-4-4----|
|----||------------------|---------------------|------------------------|


              PM----|
  E E E E E E s s s s         E E E E E E E E
|----------------------||-||------------------|
|---------------------o||-||o-----------------|
|----------------------||-||------------------|
|-6-6-6-6-6-6----------||-||--3-3-3-3-3-3-3-3-|
|-7-7-7-7-7-7-7-7-7-7-o||-||o-5-5-5-5-5-5-5-5-|
|----------------------||-||------------------|


  E E E E E E E E   E E E E E E E E   E E E E E E E E
|-----------------|-----------------|------------------||
|-----------------|-----------------|-----------------o||
|-----------------|-----------------|------------------||
|-3-3-3-3-3-3-3-3-|-3-3-3-3-3-3-3-3-|-6-6-6-6-6-6-6-6--||
|-5-5-5-5-5-5-5-5-|-4-4-4-4-4-4-4-4-|-7-7-7-7-7-7-7-7-o||
|-----------------|-----------------|------------------||


  Gtr I
    PM|   PM|   PM|   PM|     PM|   PM|     PM
  E S S E S S E S S E S S   E S S E S S E E E E     +E  E E E E E E E
|-------------------------|---------------------||-----------------------|
|-------------------------|---------------------||o----------------------|
|-------------------------|---------------------||-----------------------|
|-4-----3-----2-----4-----|-3-----2-------------||-----------------------|
|-3-----2-----1-----3-----|-2-----1-----1-3-----||o----------------------|
|-4-0-0-3-0-0-2-0-0-4-0-0-|-3-0-0-2-0-0-1-3-0-1-||--(1)-3-3-3-3-3-3-3----|
|
| Gtr II
|   PM|   PM|   PM|   PM|     PM|   PM|     PM            PM--------|
| E S S E S S E S S E S S   E S S E S S E E E E      Q    e e Q   e e
|-------------------------|---------------------||-----------------------|
|-------------------------|---------------------||o----------------------|
|-------------------------|---------------------||-----------------------|
|-4-----3-----2-----4-----|-3-----2-------------||-----------------------|
|-3-----2-----1-----3-----|-2-----1-----1-3-----||o-------0-0-----0-0----|
|-4-0-0-3-0-0-2-0-0-4-0-0-|-3-0-0-2-0-0-1-3-0-1-||--------0-0-----0-0----|


  Gtr I
  E E E E E E E E     +E  E E E E E Q
|------------------||------------------|
|-----------------o||------------------|
|------------------||------------------|
|------------------||------------------|
|-----------------o||------------------|
|-3-3-3-3-1h3-0-1--||-(1)-3-3-3-3-3-1S=|
|
| Gtr II
|     PM|
| Q   e e H            H        Q   Q
|------------------||------------------|
|-----------------o||------------------|
|------------------||------------------|
|------------------||------------------|
|-----0-0---------o||------------------|
|-----0-0----------||---------------1S=|


   ~~~~~~~~~~
   H     +Q    +E  E   +E  E E E E E E E
|--------------------|-------------------|
|--------------------|-------------------|
|--------------------|-------------------|
|--------------------|-------------------|
|--------------------|-------------------|
|-15----(15)--(15)-1-|-(1)-3-3-3-3-3-3-3-|
|
|  ~~~~~~~~~~                PM|     PM|
|  H     +Q    +E  E    Q    e e Q   e e
|--------------------|-------------------|
|--------------------|-------------------|
|--------------------|-------------------|
|--------------------|-------------------|
|--------------------|-------0-0-----0-0-|
|-15----(15)--(15)---|-------0-0-----0-0-|


  Gtr I                                         Gtr III
  E E E E E E E E   +E  E E E E E E E   E E E E  H
|-----------------|-------------------|----------------|
|-----------------|-------------------|---------<6>----|
|-----------------|-------------------|---------<6>----|
|-----------------|-------------------|---------<6>----|
|-----------------|-------------------|----------------|
|-3-3-3-3-1-3-0-1-|-(1)-3-3-3-3-3-3-3-|-3-3-3-3--------|
|
| Gtr II                                        Gtr III
|     PM|
| Q   e e H          W                  H        H
|-----------------|-------------------|----------------|
|-----------------|-------------------|---------<6>----|
|-----------------|-------------------|---------<6>----|
|-----------------|-------------------|---------<6>----|
|-----0-0---------|-------------------|----------------|
|-----0-0---------|-------------------|----------------|


  Gtr I
    PM|   PM|   PM--------|                PM|     PM        PM
  E s s E s s E e e e   e e E E E Q  E   E s s E E e E Q     e E E E E Q  E
|---------------------|----------------|-------------------|-----------------|
|---------------------|----------------|-------------------|-----------------|
|---------------------|----------------|-------------------|-----------------|
|-4-----3-----2-------|----------------|-4-----3---0-------|-0---------------|
|-3-----2-----1-0-0-0-|-0-0---1--------|-3-----2---0-------|-0-----1---------|
|-4-0-0-3-0-0-2-0-0-0-|-0-0-2---2-1--0-|-4-0-0-3---0-------|-0---2---2-1--0--|
|
| Gtr II
|   PM|   PM|   PM--------|                PM|   PM------------|
| E s s E s s E e e e   e e E E E Q  E   E s s E e e e e e   e e E E E Q  E
|---------------------|----------------|-------------------|-----------------|
|---------------------|----------------|-------------------|-----------------|
|---------------------|----------------|-------------------|-----------------|
|-4-----3-----2-------|----------------|-4-----3-----------|-----------------|
|-3-----2-----1-0-0-0-|-0-0---1--------|-3-----2-0-0-0-0-0-|-0-0---1---------|
|-4-0-0-3-0-0-2-0-0-0-|-0-0-2---2-1--0-|-4-0-0-3-0-0-0-0-0-|-0-0-2---2-1--0--|


    PM|   PM|   PM--------|
  E s s E s s E e e e   e e E E E Q  E
|---------------------|----------------|
|---------------------|----------------|
|---------------------|----------------|
|-4-----3-----2-------|----------------|
|-3-----2-----1-0-0-0-|-0-0---1--------|
|-4-0-0-3-0-0-2-0-0-0-|-0-0-2---2-1--0-|
|
|   PM|   PM|   PM--------|
| E s s E s s E e e e   e e E E E Q  E
|---------------------|----------------|
|---------------------|----------------|
|---------------------|----------------|
|-4-----3-----2-------|----------------|
|-3-----2-----1-0-0-0-|-0-0---1--------|
|-4-0-0-3-0-0-2-0-0-0-|-0-0-2---2-1--0-|


    PM|
  E s s E E H                   Q     E E E Q  E
|-----------------------------|------------------|
|-----------------------------|------------------|
|-----------------------------|------------------|
|-4-----3---------------------|------------------|
|-3-----2---------------------|---------1--------|
|-4-0-0-3---------------------|-------2---2-1--0-|
|
|   PM|   PM--|   PM--|   PM----|
| E s s E S S S S S S S S S S   S S E E E E Q  E
|-----------------------------|------------------|
|-----------------------------|------------------|
|-----------------------------|------------------|
|-4-----3---------------------|------------------|
|-3-----2-0-0-0---0-0-0---0-0-|-0-------1--------|
|-4-0-0-3-0-0-0---0-0-0---0-0-|-0---0-2---2-1--0-|


    PM|   PM|   PM--------|                PM|
  E s s E s s E e e e   e e E E E Q  E   E s s E E H         Q   E E E Q  E
|---------------------|----------------|-------------------|-----------------|
|---------------------|----------------|-------------------|-----------------|
|---------------------|----------------|-------------------|-----------------|
|-4-----3-----2-------|----------------|-4-----3-----------|-----------------|
|-3-----2-----1-0-0-0-|-0-0---1--------|-3-----2-----------|-------1---------|
|-4-0-0-3-0-0-2-0-0-0-|-0-0-2---2-1--0-|-4-0-0-3-----------|-----2---2-1--0--|
|
|   PM|   PM|   PM--------|                PM|   PM------------|
| E s s E s s E e e e   e e E E E Q  E   E s s E e e e e e   e e E E E Q  E
|---------------------|----------------|-------------------|-----------------|
|---------------------|----------------|-------------------|-----------------|
|---------------------|----------------|-------------------|-----------------|
|-4-----3-----2-------|----------------|-4-----3-----------|-----------------|
|-3-----2-----1-0-0-0-|-0-0---1--------|-3-----2-0-0-0-0-0-|-0-0---1---------|
|-4-0-0-3-0-0-2-0-0-0-|-0-0-2---2-1--0-|-4-0-0-3-0-0-0-0-0-|-0-0-2---2-1--0--|


  E E E Q  E E E   E Q  E E E E E   +E  E E E E E E E   E E E E E E E E
|----------------|----------------|-------------------|-----------------|
|----------------|----------------|-------------------|-----------------|
|----------------|----------------|-------------------|-----------------|
|----------------|----------------|-------------------|-----------------|
|---3----------1-|--------1-3-0-1-|-(1)-3-3-3-3-3-3-3-|-3-3-3-3-1-3-0-1-|
|-4---4-3--0-2---|-2-1--0-1-3-0-1-|-(1)-3-3-3-3-3-3-3-|-3-3-3-3-1-3-0-1-|
|
| E H      E E E   H      E E E E   +E  E E E E E E E   E E E E E E E E
|----------------|----------------|-------------------|-----------------|
|----------------|----------------|-------------------|-----------------|
|----------------|----------------|-------------------|-----------------|
|----------------|----------------|-------------------|-----------------|
|-4----------2---|--------1-3-0-1-|-(1)-3-3-3-3-3-3-3-|-3-3-3-3-1-3-0-1-|
|-4----------2---|--------1-3-0-1-|-(1)-3-3-3-3-3-3-3-|-3-3-3-3-1-3-0-1-|


  +E   E   E   E   E   E   E   E     E   E   E   E  E E E E
|---------------------------------|-------------------------|
|---------------------------------|-------------------------|
|-----(4)-(4)-(4)-(4)-(4)-(4)-(4)-|-(4)-(4)-(4)-(4)---------|
|---------------------------------|-------------------------|
|-(1)--3---3---3---3---3---3---3--|--3---3---3---3--1-3-0-1-|
|-(1)--3---3---3---3---3---3---3--|--3---3---3---3--1-3-0-1-|
|
| +E   E   E   E   E   E   E   E     E   E   E   E  E E E E
|---------------------------------|-------------------------|
|---------------------------------|-------------------------|
|-----(4)-(4)-(4)-(4)-(4)-(4)-(4)-|-(4)-(4)-(4)-(4)---------|
|---------------------------------|-------------------------|
|-(1)--3---3---3---3---3---3---3--|--3---3---3---3--1-3-0-1-|
|-(1)--3---3---3---3---3---3---3--|--3---3---3---3--1-3-0-1-|


  +E  E E E E E E E   E E E E E E E E
|-------------------|-----------------|
|-------------------|-----------------|
|-------------------|-----------------|
|-------------------|-----------------|
|-(1)-3-3-3-3-3-3-3-|-3-3-3-3-1-3-0-1-|
|-(1)-3-3-3-3-3-3-3-|-3-3-3-3-1-3-0-1-|
|
| +E  E E E E E E E   E E E E E E E E
|-------------------|-----------------|
|-------------------|-----------------|
|-------------------|-----------------|
|-------------------|-----------------|
|-(1)-3-3-3-3-3-3-3-|-3-3-3-3-1-3-0-1-|
|-(1)-3-3-3-3-3-3-3-|-3-3-3-3-1-3-0-1-|


      PM  PM  PM  PM    PM  PM
  +E  e E e E e E e   E e E e E E e E    W                  W
|-------------------|-----------------|-------------------|-----------------|
|-------------------|-----------------|-------------------|-----------------|
|-------------------|-----------------|-------------------|-----------------|
|-------3---1---1---|-3---1---------3-|-------------------|-----------------|
|-(1)---3---1---1---|-3---1---1-3-0-5-|-------------------|-----------------|
|-(1)-0-3-0-1-0-1-0-|-3-0-1-0-1-3-0---|-------------------|-----------------|
|
|     PM  PM  PM  PM    PM  PM           PM-------------------------------|
| +E  e E e E e E e   E e E e E E e E   +E  e e e e e e e   e e e e e e e e
|-------------------|-----------------|-------------------|-----------------|
|-------------------|-----------------|-------------------|-----------------|
|-------------------|-----------------|-------------------|-----------------|
|-------3---1---1---|-3---1---------3-|-(3)---------------|-----------------|
|-(1)---3---1---1---|-3---1---1-3-0-5-|-(5)-5-5-5-5-5-5-5-|-5-5-5-5-5-5-5-5-|
|-(1)-0-3-0-1-0-1-0-|-3-0-1-0-1-3-0---|-------------------|-----------------|


  Gtr II
   PM----------------------------------------------------------------
   e   e   e   e   e   e   e   e     e   e   e   e   e   e   e   e
|---------------------------------|---------------------------------|
|---------------------------------|---------------------------------|
|---------------------------------|---------------------------------|
|-(3)-(3)-(3)-(3)-(3)-(3)-(3)-(3)-|-(6)-(6)-(6)-(6)-(6)-(6)-(6)-(6)-|
|--4---4---4---4---4---4---4---4--|--7---7---7---7---7---7---7---7--|
|---------------------------------|---------------------------------|


 -----|      PM-----|      PM-------|      PM-----|      PM
   e   e  E  e   e   e  E  e     e   e  E  e   e   e  E  e
|-----------------------------|-----------------------------|
|-----------------------------|-----------------------------|
|-----------------------------|-----------------------------|
|-(x)-(x)-3-(x)-(x)-(x)-3-(x)-|-(x)-(x)-3-(x)-(x)-(x)-3-(x)-|
|--5---5--5--5---5---5--5--5--|--5---5--5--5---5---5--5--5--|
|-----------------------------|-----------------------------|


  Gtr I
                        ~~~~~~~~~~~~~~~~
   Q      E E E E E E   E E E E E E E E     E E E E E E E E   E E E E E E E E
|---------------------|-----------------||------------------|-----------------|
|---------------------|-----------------||o-----------------|-----------------|
|---------------------|-----------------||------------------|-----------------|
|---------3-3-3-3-3-3-|-----------------||--3-3-3-3-3-3-3-3-|-3-3-3-3-3-3-3-3-|
|---------4-4-4-4-4-4S|=7-7-7-7-7-7-7-7-||o-5-5-5-5-5-5-5-5-|-5-5-5-5-5-5-5-5-|
|---------------------|-----------------||------------------|-----------------|
|
| Gtr II
|  PM-|
|  e   e  E E E E E E   E E E E E E E E     E E E E E E E E   E E E E E E E E
|---------------------|-----------------||------------------|-----------------|
|---------------------|-----------------||o-----------------|-----------------|
|---------------------|-----------------||------------------|-----------------|
|-(3)-(3)-3-3-3-3-3-3S|=6-6-6-6-6-6-6-6-||--3-3-3-3-3-3-3-3-|-3-3-3-3-3-3-3-3-|
|--4---4--4-4-4-4-4-4S|=7-7-7-7-7-7-7-7-||o-5-5-5-5-5-5-5-5-|-5-5-5-5-5-5-5-5-|
|---------------------|-----------------||------------------|-----------------|


  E E E E E E E E   E E E E E E E E  4x E H      E E E   H      E E E E
|-----------------|------------------||----------------|----------------|
|-----------------|-----------------o||----------------|----------------|
|-----------------|------------------||----------------|----------------|
|-3-3-3-3-3-3-3-3S|=6-6-6-6-6-6-6-6--||----------------|----------------|
|-4-4-4-4-4-4-4-4S|=7-7-7-7-7-7-7-7-o||-4----------2---|----------2-----|
|-----------------|------------------||-4----------2---|--------3---3-2-|
|
| E E E E E E E E   E E E E E E E E  4x E E E Q  E E E   E Q  E E E E E
|-----------------|------------------||----------------|----------------|
|-----------------|-----------------o||----------------|----------------|
|-----------------|------------------||----------------|----------------|
|-3-3-3-3-3-3-3-3S|=6-6-6-6-6-6-6-6--||----------------|----------------|
|-4-4-4-4-4-4-4-4S|=7-7-7-7-7-7-7-7-o||---3----------1-|----------2-----|
|-----------------|------------------||-4---4-3--0-2---|-2-1--0-3---3-2-|


                                 ~~~~~~~~~PM--------------------|
  E H      E E E   H      E E E  E    +E  e e e e e e e   e e e e E E E E
|----------------|------------------|-------------------|-----------------|
|----------------|------------------|-------------------|-----------------|
|----------------|------------------|-------------------|-----------------|
|----------------|------------------|-------------------|-----------------|
|-4----------2---|----------2-------|-----0-0-0-0-0-0-0-|-0-0-0-0---3-----|
|-4----------2---|--------3---3-[2]-|-(2)-0-0-0-0-0-0-0-|-0-0-0-0-4---4-3-|
|
|                                ~~~~~~~~~PM--------------------|
| E E E Q  E E E   E Q  E E E E  E    +E  e e e e e e e   e e e e E E E E
|----------------|------------------|-------------------|-----------------|
|----------------|------------------|-------------------|-----------------|
|----------------|------------------|-------------------|-----------------|
|----------------|------------------|-------------------|-----------------|
|---3----------1-|----------2-------|-----0-0-0-0-0-0-0-|-0-0-0-0---3-----|
|-4---4-3--0-2---|-2-1--0-3---3-[2]-|-(2)-0-0-0-0-0-0-0-|-0-0-0-0-4---4-3-|


                                                        Q=150
                              PM--------------------|
  +E  E E E E Q  E   E E E Q  e e e   e e e e e e e e   Q   Q    H
|------------------|----------------|-----------------|----------------|
|------------------|----------------|-----------------|----------------|
|------------------|----------------|-----------------|----------------|
|------------------|----------------|-----------------|----------------|
|---------1--------|---2------0-0-0-|-0-0-0-0-0-0-0-0-|-4--------------|
|-(3)-0-2---2-1--0-|-3---3-2--0-0-0-|-0-0-0-0-0-0-0-0-|-4--------------|
|
|                             PM--------------------|
| +E  E E E E Q  E   E E E Q  e e e   e e e e e e e e   Q.    Q.    Q
|------------------|----------------|-----------------|----------------|
|------------------|----------------|-----------------|----------------|
|------------------|----------------|-----------------|----------------|
|------------------|----------------|-----------------|----------------|
|---------1--------|---2------0-0-0-|-0-0-0-0-0-0-0-0-|-------3--------|
|-(3)-0-2---2-1--0-|-3---3-2--0-0-0-|-0-0-0-0-0-0-0-0-|-4-----------4--|


            Q=160                      Q=120
   Q     Q  Q  Q       W               Q   Q    H       W
|-------------------|----------------|---------------|-------------------|
|-------------------|----------------|---------------|-------------------|
|-------------------|----------------|---------------|-------------------|
|-------------------|----------------|---------------|-------------------|
|-----------2-------|----------------|-3-------------|-------------------|
|-----------2-------|----------------|-3-------------|-------------------|
|
| +E  Q.    Q.    E   +Q   Q.   Q.     Q.    Q.    Q   +E  E +Q   +H
|-------------------|----------------|---------------|-------------------|
|-------------------|----------------|---------------|-------------------|
|-------------------|----------------|---------------|-------------------|
|-------------------|----------------|---------------|-------------------|
|-----------------1-|-(1)------------|-------2-------|-------------------|
|-(4)-3-----2-------|------2----1----|-3-----------3-|-(3)-2-(2)--(2)----|


  E E E Q  E E E   E E E Q  E S S S S
|----------------|--------------------|
|----------------|--------------------|
|----------------|--------------------|
|----------------|--------------------|
|----------------|--------------------|
|-4-3-0-1--0-1-0-|-4-3-0-1--0-1h4p1p0-|
|
| E E E Q  E E E   E E E Q  E S S S S
|----------------|--------------------|
|----------------|--------------------|
|----------------|--------------------|
|----------------|--------------------|
|----------------|--------------------|
|-4-3-0-1--0-1-0-|-4-3-0-1--0-1h4p1p0-|


                                   2/4
  E E E Q  E E E   E E E Q  E E E   E E Q
|----------------|----------------|---------|
|----------------|----------------|---------|
|----------------|----------------|---------|
|----------------|----------------|---------|
|----------------|------------1---|-1-------|
|-4-3-0-1--0-1-0-|-4-3-0-1--0-1---|-1-------|
|
| E E E Q  E E E   E E E Q  E E E   E E Q
|----------------|----------------|---------|
|----------------|----------------|---------|
|----------------|----------------|---------|
|----------------|----------------|---------|
|----------------|------------1---|-1-------|
|-4-3-0-1--0-1-0-|-4-3-0-1--0-1---|-1-------|


 4/4
  E E E Q  E Q    E E E Q  E S S S S   E E E Q  E Q    E E E Q  E Q
|---------------|--------------------|---------------|-----------------------|
|---------------|--------------------|---------------|-----------------------|
|---------------|--------------------|---------------|-----------------------|
|---------------|--------------------|---------------|-----------------------|
|-4-3-0-1--0----|-4-3-0-1------------|-4-3-0-1--0----|-4-3-0-1---------------|
|-4-3-0-1--0----|-4-3-0-1--0-1h4p1p0-|-4-3-0-1--0----|-4-3-0-1--0------------|
|
| E E E Q  E Q    E E E Q  E S S S S   E E E Q  E Q    E E E Q  E S S S S
|---------------|--------------------|---------------|-----------------------|
|---------------|--------------------|---------------|-----------------------|
|---------------|--------------------|---------------|-----------------------|
|---------------|--------------------|---------------|-----------------------|
|-4-3-0-1--0----|-4-3-0-1------------|-4-3-0-1--0----|-4-3-0-1---------------|
|-4-3-0-1--0----|-4-3-0-1--0-1h4p1p0-|-4-3-0-1--0----|-4-3-0-1--0-1h4p1p0----|


  H          Q
|-----------------|
|-----------------|
|-----------------|
|------------0----|
|------------0----|
|------------0----|
|
| S S S S Q  Q
|-----------------|
|-----------------|
|-----------------|
|------------0----|
|------------0----|
|-1h4p1p0----0----|


|-|
|-|
|-|
|-|
|-|
|-|



Duration Legend
---------------
W - whole; H - half; Q - quarter; E - 8th; S - 16th; T - 32nd; X - 64th; a - acciaccatura
+ - note tied to previous; . - note dotted; .. - note double dotted
Uncapitalized letters represent notes that are staccato (1/2 duration)
Irregular groupings are notated above the duration line
Duration letters will always appear directly above the note/fret number it represents the
duration for.  Duration letters with no fret number below them represent rests.  Multi-
bar rests are notated in the form Wxn, where n is the number of bars to rest for.  Low
melody durations appear below the staff

Tablature Legend
----------------
 h   - hammer-on
 p   - pull-off
 b   - bend
 pb  - pre-bend
 r   - bend release (if no number after the r, then release immediately)
 /\  - slide into or out of (from/to "nowhere")
 s   - legato slide
 S   - shift slide
 - natural harmonic
[n]  - artificial harmonic
n(n) - tapped harmonic
 ~   - vibrato
 tr  - trill
 T   - tap
 TP  - trem. picking
 PM  - palm muting
\n/  - tremolo bar dip; n = amount to dip
 \n  - tremolo bar down
 n/  - tremolo bar up
/n\  - tremolo bar inverted dip
 =   - hold bend; also acts as connecting device for hammers/pulls
 <> - volume swell (louder/softer)
 x   - on rhythm slash represents muted slash
 o   - on rhythm slash represents single note slash

Misc Legend
-----------
 |  - bar
||  - double bar
||o - repeat start
o|| - repeat end
*|  - double bar (ending)
 :  - bar (freetime)
 $  - Segno
 &  - Coda
Tempo markers -  = BPM(8/16=s8/s16), where s8 = swing 8ths, s16 = swing 16ths

Добавлено: 13.03.2012
Другие материалы по этой песне:

Страница создана 13.03.2012
http://primanota.ru/every-time-i-die/guitarred-and-feathered-chords.htm
Привет, Гость.
Предлагаем пройти революционный курс по гитаре.
Подарок от PrimaNota.Ru, забирай!