PrimaNota.ru - самый крупный в мире бесплатный архив песенных текстов, аккордов, табулатур и нот


Every Time I Die - Goddam Kids These Days - таба, видео

Регистрация Запомнить меня
Войти через:  Facebook Google Twitter Vk Yandex Mail.ru

Every Time I Die - Goddam Kids These Days - таба, видео

Печатать
Просмотров: 190
Уроки эстрадного вокала в Санкт-Петербурге
-----------------------------------------------------------------
Goddam Kids These Days - Every Time I Die
-----------------------------------------------------------------
Tabbed by: millarso (Jake Miller)
Email: millarso2.0@gmail.com
Tuning: Drop D

Intro (played sloppily, with light distortion)
e|---------------------------------|
B|---------------------------------|
G|-6--6-6----------------10--------|
D|-x--x-x-3-5-0--10-12-x--x--x-x-x-|x4
A|-5--5-5-3-5-0--10-12-x--9--x-x-x-|
D|--------3-5-0--10-12-x-----x-x-x-|

Riff 1
Guitar 1
e|-------------------------------------------------|
B|-------------------------------------------------|
G|-------------------------------------------------|
D|-5-5-5-3-6-3-5-5-5-3-6-3-5-5-5-3-6-3-5--3--6--3--|
A|-5-5-5-3-6-3-5-5-5-3-6-3-5-5-5-3-6-3-5--3--6--3--|
D|-5-5-5-3-6-3-5-5-5-3-6-3-5-5-5-3-6-3-5--3--6--3--|

Guitar 2
e|-------------------------------------------------|
B|-------------------------------------------------|
G|-------------------------------------------------|
D|-5-5---------5-5---------5-5---------5--3--6--3--|
A|-5-5---------5-5---------5-5---------5--3--6--3--|
D|-5-5---------5-5---------5-5---------5--3--6--3--|

Riff 2
Both Guitars
e|---------------------------------|
B|---------------------------------|
G|-6-6-6----------------10---------|
D|-x-x-x-3-5-0--10-12-0--x---------|
A|-5-5-5-3-5-0--10-12-0--9---------|
D|-0-0-0-3-5-0--10-12-0----5-3-6-3-|
                      .

e|-------------------------------------------------------------------|
B|-------------------------------------------------------------------|
G|-------------------------------------------------------------------|
D|-12-12-12-10-13-10-12-12-12-10-13-10-12-12-12-10-13-10-5--3--6--3--|
A|-12-12-12-10-13-10-12-12-12-10-13-10-12-12-12-10-13-10-5--3--6--3--|
D|-12-12-12-10-13-10-12-12-12-10-13-10-12-12-12-10-13-10-5--3--6--3--|

Repeat Riff 2 (x1) but end it like this...
Guitar 1
e|--------------|
B|--------------|
G|------------6-|
D|-5--3--6--3-x-|
A|-5--3--6--3-5-|
D|-5--3--6--3-0-|

Guitar 1
e|--------------|
B|--------------|
G|--------------|
D|-5--3--6--3-0-|
A|-5--3--6--3-0-|
D|-5--3--6--3-0-|

Riff 3
Guitar 1
e|----------------------------------------------------------|
B|----------------------------------------------------------|
G|-----------------------------6--6-6-6-6--6--6-6-6--6------|
D|-4-6-----7-----6-----7-------x--x-x-x-x--x--x-x-x--x------|
A|-----4-5---4-5---4-5---------5--5-5-5-5--5--5-5-5--5------|
D|-----------------------------0--0-0-0-0--0--0-0-0--0-0--0-|

Guitar 2
e|----------------------------------------------------------|
B|----------------------------------------------------------|
G|----------------------------------------------------------|
D|-----------------------------0--0-0-0-0--0--0-0-0--0------|
A|-----------------------------0--0-0-0-0--0--0-0-0--0------|
D|-0-0-0-0-0-0-0-0-0-0-0-0-0-0-0--0-0-0-0--0--0-0-0--0-0--0-|

Guitar 1
e|---------------------------------------------------------------------|
B|---------------------------------------------------------------------|
G|-----------------------------6--6-6-6-6-6--------------------------6-|
D|-4-6-----7-----6-----7-------x--x-x-x-x-x---5-5-5-3--6-6-6-3--3--3-x-|
A|-----4-5---4-5---4-5---------5--5-5-5-5-5---5-5-5-3--6-6-6-3--3--3-5-|
D|-----------------------------0--0-0-0-0-0---5-5-5-3--6-6-6-3--3--3---|

Guitar 2
e|---------------------------------------------------------------------|
B|---------------------------------------------------------------------|
G|---------------------------------------------------------------------|
D|-----------------------------0--0-0-0-0-0---5-5-5-3--6-6-6-3--3--3-0-|
A|-----------------------------0--0-0-0-0-0---5-5-5-3--6-6-6-3--3--3-0-|
D|-0-0-0-0-0-0-0-0-0-0-0-0-0-0-0--0-0-0-0-0---5-5-5-3--6-6-6-3--3--3-0-|

Repeat Riff 3 (x1) but end it like this for both guitars...
e|----------------------|
B|----------------------|
G|----------------------|
D|-5-5-5-3--6-6-6-3--3--|
A|-5-5-5-3--6-6-6-3--3--|
D|-5-5-5-3--6-6-6-3--3--|

Transition to Riff 4
Guitar 1
e|---------------------------------|
B|---------------------------------|
G|-6-------6-------6-6-6-----------|
D|-x-------x-------x-x-x---5-3-6-3-|
A|-5-0-0-0-5-0-0-0-5-5-5-0-5-3-6-3-|
D|-0-0-0-0-0-0-0-0-0-0-0-0-5-3-6-3-|
     . . .   . . .       .

Guitar 2
e|---------------------------------|
B|---------------------------------|
G|---------------------------------|
D|-0-------0-------0-0-0---5-3-6-3-|
A|-0-0-0-0-0-0-0-0-0-0-0-0-5-3-6-3-|
D|-0-0-0-0-0-0-0-0-0-0-0-0-5-3-6-3-|
     . . .   . . .       .

Riff 4
Guitar 1
e|-----------------------------------------------------------------|
B|-----------------------------------------------------------------|
G|-6---------------------------6---6-------6-------6-6-6-----------|
D|-x---------------------------x---x-------x-------x-x-x---5-3-6-3-|x2
A|-5-0-0-0-0-0-0-0-0-0-0-0-0-0-5-0-5-0-0-0-5-0-0-0-5-5-5-0-5-3-6-3-|
D|-0-0-0-0-0-0-0-0-0-0-0-0-0-0-0-0-0-0-0-0-0-0-0-0-0-0-0-0-5-3-6-3-|
     . . . . . . . . . . . . .   .   . . .   . . .       .

Guitar 2
e|-----------------------------------------------------------------|
B|-----------------------------------------------------------------|
G|-----------------------------------------------------------------|
D|-0---------------------------0---0-------0-------0-0-0---5-3-6-3-|x2
A|-0-0-0-0-0-0-0-0-0-0-0-0-0-0-0-0-0-0-0-0-0-0-0-0-0-0-0-0-5-3-6-3-|
D|-0-0-0-0-0-0-0-0-0-0-0-0-0-0-0-0-0-0-0-0-0-0-0-0-0-0-0-0-5-3-6-3-|
     . . . . . . . . . . . . .   .   . . .   . . .       .

Riff 5
Guitar 1
e|-----------------------------------------------|
B|-----------------------------------------------|
G|-6----6----6-6-6---6--6----6----6-6-6--13\-----|
D|-x----x----x-x-x---x--x----x----x-x-x---x------|
A|-5----5----5-5-5---5--5----5----5-5-5--12\-0-0-|
D|-0----0----0-0-0---0--0----0----0-0-0------0-0-|
                                             . .
Guitar 2
e|-----------------------------------------------|
B|-----------------------------------------------|
G|---------------------------------------13\-----|
D|-0----0----0-0-0---0--0----0----0-0-0---x------|
A|-0----0----0-0-0---0--0----0----0-0-0--12\-0-0-|
D|-0----0----0-0-0---0--0----0----0-0-0------0-0-|
                                             . .
Guitar 1
e|-------------------------------------------------|
B|-------------------------------------------------|
G|-6----6----6-6-6---6--6----6----6-6-6------------|
D|-x----x----x-x-x---x--x----x----x-x-x--8--12--0~-|
A|-5----5----5-5-5---5--5----5----5-5-5--8--12--0~-|
D|-0----0----0-0-0---0--0----0----0-0-0--8--12--0~-|

Guitar 2
e|-------------------------------------------------|
B|-------------------------------------------------|
G|-------------------------------------------------|
D|-0----0----0-0-0---0--0----0----0-0-0--8--12--0~-|
A|-0----0----0-0-0---0--0----0----0-0-0--8--12--0~-|
D|-0----0----0-0-0---0--0----0----0-0-0--8--12--0~-|

Riff 6
Guitar 1
e|-------------------------------------------------------------------|
B|-------------------------------------------------------------------|
G|-6---------------------------------------------------------------6-|
D|-x----------------------------------------------5--3--6--3--3--3-x-|
A|-5----------------------------------------------5--3--6--3--3--3-5-|
D|-0----------------------------------------------5--3--6--3--3--3-0-|

Guitar 2 (I summed up those long sections of open notes)
e|-------------------------------------------------------------------|
B|-------------------------------------------------------------------|
G|-6---------6---------6--6---------6--6-6-6-6-6---------------------|
D|-x---------x---------x--x---------x--x-x-x-x-x--5--3--6--3--3--3-0-|
A|-5---------5---------5--5---------5--5-5-5-5-5--5--3--6--3--3--3-0-|
D|---0-(x14)---0-(x12)------0-(x14)---------------5--3--6--3--3--3-0-|

Repeat Riff 3 (x2) with the alternate ending on the last repeat like before
Repeat Transition to Riff 4 (x1)
Repeat Riff 4 (x1)
Repeat Riff 5 (x1)
After a pause...
Repeat Riff 2 (x2) but end with...

Outro
e|----------------------------------------------------------------------------------------|
B|----------------------------------------------------------------------------------------|
G|----------------------------------------------------------------------------------------|
D|-12-12-12-10-13-10-12-12-12-10-13-10-12-12-12-10-13-10-5-5-5-3-3-3-6-6-6-3-3-3-------0~-|
A|-12-12-12-10-13-10-12-12-12-10-13-10-12-12-12-10-13-10-5-5-5-3-3-3-6-6-6-3-3-3----5--0~-|
D|-12-12-12-10-13-10-12-12-12-10-13-10-12-12-12-10-13-10-5-5-5-3-3-3-6-6-6-3-3-3-8-----0~-|

There you go. It looks like people have been looking for this for a while.
Some of those dissonances are pretty hard to tell from a listen, but this sounds pretty
good to me.
Hope it works for you.
Please rate & comment.

millarso 
Добавлено: 24.10.2013
Другие материалы по этой песне:
  • Аккорды и текст

Страница создана 24.10.2013
http://primanota.ru/every-time-i-die/goddam-kids-these-days-chords.htm
Привет, Гость.
Предлагаем пройти революционный курс по гитаре.
Подарок от PrimaNota.Ru, забирай!