PrimaNota.ru - самый крупный в мире бесплатный архив песенных текстов, аккордов, табулатур и нот


Every Time I Die - For The Record - текст песни, таба, видео

Регистрация Запомнить меня
Войти через:  Facebook Google Twitter Vk Yandex Mail.ru

Every Time I Die - For The Record - текст песни, таба, видео

Печатать
Просмотров: 120
-------------------------------------
  For The Record - Every Time I Die
-------------------------------------
Tabbed by: millarso (Jake Miller)
E-mail: millarso2.0@gmail.com

Tuning: Drop D

Guitar 1: Left Stereo
Guitar 2: Right Stereo

SECTION 1
Both Guitars
E|-------------------------------------------------|
B|-------------------------------------------------|
G|-------------------------------------------------|
D|-----------------------------------------2-------|
A|-4---3-----3---2-----4---3-----3---2-----2-0-1-3-|
D|---3---2-2---1---1-1---3---2-2---1---1-0-2-0-1-3-|
                                             . . .
E|---------------------------------------------------------|
B|---------------------------------------------------------|
G|---------------------------------------------------------|
D|-----------------------------------------6---------------|
A|-4---3-----3---2-----4---3-----3---2-------3-----1/4-----|
D|---3---2-2---1---1-1---3---2-2---1---1-0-----3-0-----3-0-|

REPEAT SECTION 1

SECTION 2
Guitar 1
E|-----------------------------------------------------------------------------|
B|-----------------------------------------------------------------------------|
G|-----------------------------------------------------------------------------|
D|-6---5-----5---4-----6---5-----5---4-----6---5-----5---4-----6---5-----5---4-|
A|---0---0-0---0---0-0---0---0-0---0---0-0---0---0-0---0---0-0---0---0-0---0---|
D|---0---0-0---0---0-0---0---0-0---0---0-0---0---0-0---0---0-0---0---0-0---0---|
||   .   . .   .   . .   .   . .   .   . .   .   . .   .   . .   .   . .   .
Guitar 2
E|-----------------------------------------------------------------------------|
B|-----------------------------------------------------------------------------|
G|-----------------------------------------------------------------------------|
D|-----------------------------------------------------------------------------|
A|-6-0-5-0-0-5-0-4-0-0-6-0-5-0-0-5-0-4-0-0-6-0-5-0-0-5-0-4-0-0-6-0-5-0-0-5-0-4-|
D|-6-0-5-0-0-5-0-4-0-0-6-0-5-0-0-5-0-4-0-0-6-0-5-0-0-5-0-4-0-0-6-0-5-0-0-5-0-4-|
     .   . .   .   . .   .   . .   .   . .   .   . .   .   . .   .   . .   .

REPEAT SECTION 1

SECTION 3
Guitar 1
E|---------------------------------------------------------------------------------|
B|---------------------------------------------------------------------------------|
G|---------------------------------------------------------------------------------|
D|-6---5-----5---4-----6---5-----5---4-----6---5-----5---4-----6---5-----5---4-----|
A|---0---0-0---0---0-0---0---0-0---0---0-0---0---0-0---0---0-0---0---0-0---0---0-0-|
D|---0---0-0---0---0-0---0---0-0---0---0-0---0---0-0---0---0-0---0---0-0---0---0-0-|
||   .   . .   .   . .   .   . .   .   . .   .   . .   .   . .   .   . .   .   . .
Guitar 2
E|---------------------------------------------------------------------------------|
B|---------------------------------------------------------------------------------|
G|---------------------------------------------------------------------------------|
D|---------------------------------------------------------------------------------|
A|-4-0-3-0-0-3-0-2-0-0-4-0-3-0-0-3-0-2-0-0-4-0-3-0-0-3-0-2-0-0-4-0-3-0-0-3-0-2-0-0-|
D|---0---0-0---0---0-0---0---0-0---0---0-0---0---0-0---0---0-0---0---0-0---0---0-0-|
     .   . .   .   . .   .   . .   .   . .   .   . .   .   . .   .   . .   .   . .
Both Guitars
E|-----------------|
B|-----------------|
G|-----------------|
D|-6---------------|
A|---3-----1/4-----|
D|-----3-0-----3-0-|

SECTION 4
Guitar 1
E|-----------------------------------------------------------------------------------------|
B|-------------10-10-------------------------------------10-10-----------------------------|
G|--------------8--8--------------------------------------8--8-----------------------------|
D|--------------7--7--------------------------------------7--7-------------6---------------|x2
A|-000-000-000-------000-000---000-000-000---000-000-000-------000-000-000---3-----1/4-----|
D|-000-000-000-------000-000---000-000-000---000-000-000-------000-000-000-----3-0-----3-0-|
|| ... ... ...       ... ...   ... ... ...   ... ... ...       ... ... ...
Guitar 2
E|-------------10-10-------------------------------------10-10-----------------------------|
B|--------------x--x--------------------------------------x--x-----------------------------|
G|--------------8--8--------------------------------------8--8-----------------------------|
D|-------------------------------------------------------------------------6---------------|x2
A|-000-000-000-------000-000---000-000-000---000-000-000-------000-000-000---3-----1/4-----|
D|-000-000-000-------000-000---000-000-000---000-000-000-------000-000-000-----3-0-----3-0-|
   ... ... ...       ... ...   ... ... ...   ... ... ...       ... ... ...

Guitar 2
E|-----------------|
B|-----------------|
G|-----------------|
D|-6---------------|
A|---3-----1/4-----|
D|-----3-0-----3-0-|

SECTION 5
Guitar 1
E|---------------------------------------------------------------|
B|-----------------------------10-10-----------------------------|
G|------------------------------8--8-----------------------------|
D|------------------------------7--7-------------6---------------|x3
A|-000-000-000-000-000-000-000-------000-000-000---3-----1/4-----|
D|-000-000-000-000-000-000-000-------000-000-000-----3-0-----3-0-|
|| ... ... ... ... ... ... ...       ... ... ...
Guitar 2
E|---------------------------------------------------------------|
B|-----------------------------10-10-----------------------------|
G|------------------------------8--8-----------------------------|
D|------------------------------7--7-------------6---------------|x3
A|-000-000-000-000-000-000-000-------000-000-000---3-----1/4-----|
D|-000-000-000-000-000-000-000-------000-000-000-----3-0-----3-0-|
   ... ... ... ... ... ... ...       ... ... ...

Guitar 1
E|------------------------------------------------------------|
B|-----------------------------10-10--------------------------|
G|------------------------------8--8---------------------2--2-|
D|------------------------------7--7-------------6-------1--1-|
A|-000-000-000-000-000-000-000-------000-000-000---3-----0--0-|
D|-000-000-000-000-000-000-000-------000-000-000-----3-0------|
|| ... ... ... ... ... ... ...       ... ... ...
Guitar 2
E|------------------------------------------------------------|
B|-----------------------------10-10--------------------------|
G|------------------------------8--8---------------------2--2-|
D|------------------------------7--7-------------6-------1--1-|
A|-000-000-000-000-000-000-000-------000-000-000---3-----0--0-|
D|-000-000-000-000-000-000-000-------000-000-000-----3-0------|
   ... ... ... ... ... ... ...       ... ... ...

SECTION 6
Both Guitars
E|-------------------------------------------------|
B|-------------------------------------------------|
G|-------------------------------------------------|
D|-----------------------------------------2-------|
A|-4-0-3-0-0-3-0-2-0-0-4-0-3-0-0-3-0-2-0-0-2-0-1-3-|
D|-2-0-2-0-0-1-0-1-0-0-2-0-2-0-0-1-0-1-0-0-2-0-1-3-|
     .   . .   .   . .   .   . .   .   . .   . . .
                                                            Gtr 2
E|---------------------------------------------------------(10-10)-|
B|---------------------------------------------------------(-x--x)-|
G|---------------------------------------------------------(-8--8)-|
D|-----------------------------------------2-------2---------------|
A|-4-0-3-0-0-3-0-2-0-0-4-0-3-0-0-3-0-2-0-0-2-0-1-3-2-0-1-3---------|
D|-2-0-2-0-0-1-0-1-0-0-2-0-2-0-0-1-0-1-0-0-2-0-1-3-2-0-1-3---------|
     .   . .   .   . .   .   . .   .   . .   . . .   . . .

E|-------------------------------------------------|
B|-------------------------------------------------|
G|-------------------------------------------------|
D|-----------------------------------------2-------|
A|-4-0-3-0-0-3-0-2-0-0-4-0-3-0-0-3-0-2-0-0-2-0-1-3-|
D|-2-0-2-0-0-1-0-1-0-0-2-0-2-0-0-1-0-1-0-0-2-0-1-3-|
     .   . .   .   . .   .   . .   .   . .   . . .
Guitar 1
E|------------------------------------------------10101010-|
B|-------------------------------------------------x-x-x-x-|
G|-------------------------------------------------8-8-8-8-|
D|-----------------------------------------2---------------|
A|-4-0-3-0-0-3-0-2-0-0-4-0-3-0-0-3-0-2-0-0-2-0-1-3---------|
D|-2-0-2-0-0-1-0-1-0-0-2-0-2-0-0-1-0-1-0-0-2-0-1-3---------|
||   .   . .   .   . .   .   . .   .   . .   . . .
Guitar 2
E|---------------------------------------------------------|
B|---------------------------------------------------------|
G|---------------------------------------------------------|
D|-----------------------------------------2-------2-------|
A|-4-0-3-0-0-3-0-2-0-0-4-0-3-0-0-3-0-2-0-0-2-0-1-3-2-0-1-3-|
D|-2-0-2-0-0-1-0-1-0-0-2-0-2-0-0-1-0-1-0-0-2-0-1-3-2-0-1-3-|
     .   . .   .   . .   .   . .   .   . .   . . .   . . .

SECTION 7
Guitar 1
E|-----1--------1--------1-----|
B|-3-3-3-3--3-3-3-3--3-3-3-3-3-|
G|-0-0-0-0--0-0-0-0--0-0-0-0-0-|
D|-----------------------------|x4
A|-----------------------------|
D|-----------------------------|
||
Guitar 2
E|-----------------------------|
B|-----------------------------|
G|-----------------------------|
D|---------------------------0-|x4
A|---------------------------0-|
D|---------------------------0-|

TRANSITION
Both Guitars
E|----------------|
B|----------------|
G|----------------|
D|--5-------------|
A|--5-(let-ring)--|
D|--5-------------|

REPEAT SECTION 1 (x2)

REPEAT SECTION 3

REPEAT SECTION 4

SECTION 8
Guitar 1
E|---------------------------------------------------------------|
B|-----------------------------10-10-----------------------------|
G|------------------------------8--8-----------------------------|
D|------------------------------7--7-------------6---------------|x4
A|-000-000-000-000-000-000-000-------000-000-000---3-----1/4-----|
D|-000-000-000-000-000-000-000-------000-000-000-----3-0-----3-0-|
|| ... ... ... ... ... ... ...       ... ... ...
Guitar 2
E|---------------------------------------------------------------|
B|-----------------------------10-10-----------------------------|
G|------------------------------8--8-----------------------------|
D|------------------------------7--7-------------6---------------|x4
A|-000-000-000-000-000-000-000-------000-000-000---3-----1/4-----|
D|-000-000-000-000-000-000-000-------000-000-000-----3-0-----3-0-|
   ... ... ... ... ... ... ...       ... ... ...

Guitar 1
E|--------------------------------------------|
B|--------------------------------10-------10-|
G|---------------------------------8-(x16)--8-|
D|-6---------------6---------------7--------7-|
A|---3-----1/4-------3-----1/4----------------|
D|-----3-0-----3-0-----3-0-----3-0------------|
||
Guitar 2
E|---------------------------------------------------|
B|---------------------------------------------------|
G|---------------------------------------------------|
D|-6---------------6---------------6---------------0-|
A|---3-----1/4-------3-----1/4-------3-----1/4-----0-|
D|-----3-0-----3-0-----3-0-----3-0-----3-0-----3-0-0-|

Not sure if all the dissonances are just right, but this should be a good representation.
Enjoy.
Please rate & comment.
Thanks,
millarso

************************************

| .   palm mute
| /   slide up
| \   slide down
| h   hammer-on
| p   pull-off
| ~   vibrato
| +   harmonic
| x   Mute note
| b   Bend
| pb  Pre-bend
| br  Bend release
| pbr Pre-bend release
| brb Bend release bend

************************************
Добавлено: 24.07.2015
Другие материалы по этой песне:

Страница создана 29.06.2012
http://primanota.ru/every-time-i-die/for-the-record-chords.htm
Привет, Гость.
Предлагаем пройти революционный курс по гитаре.
Подарок от PrimaNota.Ru, забирай!