PrimaNota.ru - самый крупный в мире бесплатный архив песенных текстов, аккордов, табулатур и нот


Every Time I Die - Easy Tiger - текст песни, таба, бас-таба, видео

Регистрация Запомнить меня
Войти через:  Facebook Google Twitter Vk Yandex Mail.ru

Every Time I Die - Easy Tiger - текст песни, таба, бас-таба, видео

Печатать
Просмотров: 242
Уроки эстрадного вокала в Санкт-Петербурге
----------------------------------------|
----------------------------------------|
----------------------------------------|
---8-----------------0/8----------------|
---8-----------------0/8----------------|
---8-----------------0/8----------------| x4

------------------------------------------------------------|
------------------------------------------------------------|
------------------------------------------------------------|
--2-0-2-5--0-2-0-2-5--0-2-0-2-0-2-5--0-2-0-5-0-2-0-2-0-8----|
--2-0-2-5--0-2-0-2-5--0-2-0-2-0-2-5--0-2-0-5-0-2-0-2-0-8----|
--2-0-2-5--0-2-0-2-5--0-2-0-2-0-2-5--0-2-0-5-0-2-0-2-0-8----| x3

--------------------------------|
--------------------------------|
--------------------------------|
--2-0-2-5--0-2-0-2-5--0-2-0-2-0-|
--2-0-2-5--0-2-0-2-5--0-2-0-2-0-|
--2-0-2-5--0-2-0-2-5--0-2-0-2-0-| x1

-----------------------------------------------|
-----------------------------------------------|
-8886--8886--3-3-------------3-3-----------3-3-|
-8886--8886--3-3----2-0-2-5--3-3--2-0-2-5--3-3-|
-6663--6663--1-1-------------1-1-----------1-1-|
-----------------------------------------------| x3

-------------------|
-------------------|
-8886--8886--3-3---|
-8886--8886--3-3---|
-6663--6663--1-1---|
-------------------| x1

(D)5-2-2--0-2-2--xxx-5-2-2--0-2-2-xxx-xxx--5-2-2--0-2-2--xxx-5-2-2--0-5-8 x2

----------------------------------------|
----------------------------------------|
----------------------------------------|
-8-----------5-2-2-0-2-2-2-0-2-0-5-8888-|
-8-----------5-2-2-0-2-2-2-0-2-0-5-8888-|
-8-----------5-2-2-0-2-2-2-0-2-0-5-8888-| x4

(D)-xxx8--xx8--x-xxxxx-x-xxx8--xx8--x-xxxxx-x-x-x-x-x-x8-
                                                               8
                                                               8
(D)-xxx8xxx8xxx8xxxxxxx8xxx8xxx8xxxxxxx8xxx8xxx8xxxxxxx8xxx8xxx8

-------------------|
-------------------|
-8886--8886--3-3---|
-8886--8886--3-3---|
-6663--6663--1-1---|
-------------------| x1

----------------------------------------------------------|
----------------------------------------------------------|
----------------------------------------------------------|
--2-0-2-5--0-2-0-2-5--0-2-0-2-0-2-5--0-2-0-5-0-2-0-2-0-8--|
--2-0-2-5--0-2-0-2-5--0-2-0-2-0-2-5--0-2-0-5-0-2-0-2-0-8--|
--2-0-2-5--0-2-0-2-5--0-2-0-2-0-2-5--0-2-0-5-0-2-0-2-0-8--| x2

-------------------|
-------------------|
-8886--8886--3-3---|
-8886--8886--3-3---|
-6663--6663--1-1---|
-------------------| x1

(D)5-2-2--0-2-2--xxx-5-2-2--0-2-2-xxx-xxx--5-2-2--0-2-2--xxx-5-2-2--0-5-8 x2

----------------------------------------|
----------------------------------------|
----------------------------------------|
---8-----------------0/8----------------|
---8-----------------0/8----------------|
---8-----------------0/8----------------| x2

------------------------|
------------------------|
------------------------|
--13--10--13--10--8-8---|
--13--10--13--10--8-8---|
--13--10--13--10--8-8---|

thats it, have fun !

danlafond@hotmail.com
Добавлено: 28.02.2012
Другие материалы по этой песне:
  • Аккорды и текст

Страница создана 28.02.2012
http://primanota.ru/every-time-i-die/easy-tiger-chords.htm
Привет, Гость.
Предлагаем пройти революционный курс по гитаре.
Подарок от PrimaNota.Ru, забирай!