PrimaNota.ru - самый крупный в мире бесплатный архив песенных текстов, аккордов, табулатур и нот


Every Time I Die - Depressionista - таба, видео

Регистрация Запомнить меня
Войти через:  Facebook Google Twitter Vk Yandex Mail.ru

Every Time I Die - Depressionista - таба, видео

Печатать
Просмотров: 123
Every Time I Die
"Depressionista"
as heard off of The Big Dirty

A little shinfo for ya, nobody tabbed this awesome song so i gave it a shot.
this is my first tab, so please rate, and comment!
thanks

Drop D


E-----------------------------|
B-----------------------------|
G-----------------------------|
D--------------------------77-|
A--7p0-0------7p0-0--------77-|
D-------8p0-0-------8p0-0--77-|

(x2)
E-------------------------------------------------------------------------------------|
B-------------------------------------------------------------------------------------|
G-------------------------------------------------------------------------------------|
D-0000000--77777777--------------------------0000000----------------------------------|  
A-0000000--77777777--7p0-0---------7p0-------0000000--------7p0-0------------7p0------|
D-0000000--77777777--------8-55555-----0-66--0000000--6-6-6-------8-555555-------0-66-|

E--------------------------|        E-----------------------------|
B--------------------------|        B-----------------------------|
G--------------------------|        G-----------------------------|
D-88888888--77777777--4-4--|  x3    D-8888888--7777--6-6-6--6-6-6-|
A-88888888--77777777--4-4--|        A-8888888--7777--6-6-6--6-6-6-|
D-88888888--77777777--4-4--|        D-8888888--7777--6-6-6--6-6-6-|
 
E-xxxxxxxx------xxxxxxxxx--------|      
B-xxxxxxxx------xxxxxxxxx--------|       
G-xxxxxxxx------xxxxxxxxx--------|       
D-xxxxxxxx--33--xxxxxxxxx--------|   x3 
A-xxxxxxxx--33--xxxxxxxxx--------|       
D-xxxxxxxx--33--xxxxxxxxx--6-6-6-|       

E-xxxxxxxx------xxxxxxxxx---------------|
B-xxxxxxxx------xxxxxxxxx---------------|
G-xxxxxxxx------xxxxxxxxx---------------|
D-xxxxxxxx--33--xxxxxxxxx---------------|
A-xxxxxxxx--33--xxxxxxxxx---------------|
D-xxxxxxxx--33--xxxxxxxxx--6-6-6--6-6-6-|


E--------|      E---------------------------|
B--------|      B---------------------------|
G--8-8-8-|      G-8-8-8---8-8-8---8-8-8---8-|
D--7-7-7-|  x3  D-7-7-7---7-7-7---7-7-7---7-|
A--6-6-6-|      A-6-6-6---6-6-6---6-6-6---6-|
D--------|      D---------------------------|

(x2)
E-------------------------------------------------------------------------------------|
B-------------------------------------------------------------------------------------|
G-------------------------------------------------------------------------------------|
D-0000000--77777777--------------------------0000000----------------------------------|  
A-0000000--77777777--7p0-0---------7p0-------0000000--------7p0-0------------7p0------|
D-0000000--77777777--------8-55555-----0-66--0000000--6-6-6-------8-555555-------0-66-|

E--------------------------|        E-----------------------------|
B--------------------------|        B-----------------------------|
G--------------------------|        G-----------------------------|
D-88888888--77777777--4-4--|   x3   D-8888888--7777--6-6-6--6-6-6-|
A-88888888--77777777--4-4--|        A-8888888--7777--6-6-6--6-6-6-|
D-88888888--77777777--4-4--|        D-8888888--7777--6-6-6--6-6-6-|

E---------------|       
B---------------|      
G---------------|      
D---------------|   
A---------------|       
D-3-3-3-4-3-0-3-|      

E-xxxxxxxx------xxxxxxxxx--------|       
B-xxxxxxxx------xxxxxxxxx--------|      
G-xxxxxxxx------xxxxxxxxx--------|       
D-xxxxxxxx--33--xxxxxxxxx--------|   x2 
A-xxxxxxxx--33--xxxxxxxxx--------|      
D-xxxxxxxx--33--xxxxxxxxx--6-6-6-|   

E-----------------------------------|
B-----------------------------------|
G-----------------------------------|
D-0000000000--33--0000000000--------|   x2
A-0000000000--33--0000000000--------|
D-0000000000--33--0000000000--6-6-6-|
  ..........      ..........                                          

E-------------------------------------------------|
B---------(really------------(really--------------|
G----------fast)--------------fast)---------------|
D-00000000-0000-000--33---000-0000-0000000--------|
A-00000000-0000-000--33---000-0000-0000000--------|
D-00000000-0000-000--33---000-0000-0000000--6-6-6-|
  ........ .... ...       ... .... .......

E-------------------------------------------------------|
B---------(really------------(really--------------------|
G----------fast)--------------fast)---------------------|
D-00000000-0000-000--33---000-0000-0000000--6-6-6--6-6-6|
A-00000000-0000-000--33---000-0000-0000000--6-6-6--6-6-6|
D-00000000-0000-000--33---000-0000-0000000--6-6-6--6-6-6|
  ........ .... ...       ... .... .......

E-------------|
B-------------|
G-------------|
D-3-3-3-4-0-3-|
A-3-3-3-4-0-3-|
D-3-3-3-4-0-3-|

The End
Hope you like!
Добавлено: 31.05.2012
Другие материалы по этой песне:
  • Аккорды и текст

Страница создана 31.05.2012
http://primanota.ru/every-time-i-die/depressionista-chords.htm
Привет, Гость.
Предлагаем пройти революционный курс по гитаре.
Подарок от PrimaNota.Ru, забирай!