PrimaNota.ru - самый крупный в мире бесплатный архив песенных текстов, аккордов, табулатур и нот


Every Time I Die - Cities And Years - таба, видео

Регистрация Запомнить меня
Войти через:  Facebook Google Twitter Vk Yandex Mail.ru

Every Time I Die - Cities And Years - таба, видео

Печатать
Просмотров: 116
Tabbed by:fall of evan
Email:sly_guy_2_000@hotmail.com

Tuning:drop D

e|----------------|4X
B|----------------|
G|------------7777|
D|------------6666|
A|---8b----5b-5555|
E|5-----4---------|

G1
e|-------|4X
B|-------|
G|7-7-7-7|
D|6-6-6-6|
A|5-5-5-5|
E|-------|

G2
e|-----| down pick alot
B|-10--|
G|-13b-|
D|-----|
A|-----|
E|-----|

e|----------------|5X |------------|
B|----------------|   |------------|
G|7-7-7-----------|   |7-7-7--7-7-7|
D|6-6-6-----------|   |6-6-6--6-6-6|
A|5-5-5-----------|   |5-5-5--5-5-5|
E|-----005p004-5p0|   |------------|
       ..   .

e|----------------|4X |-----|
B|----------------|   |-----|
G|7-7-7-----------|   |7-7-7|
D|6-6-6-----------|   |6-6-6|
A|5-5-5-----------|   |5-5-5|
E|-----005p004-5p0|   |-----|
       ..   .

e|----------------|
B|----------------|
G|------------7777|
D|------------6666|
A|---8b----5b-5555|
E|5-----4---------|

e|--------------------------|3X |------------|   Both 2X
B|--------------------------|   |------------| 
G|--------------------------|   |------------|
D|---------------------5--4-|   |------------|
A|-----8-8-8-----5-5-5--6--3|   |333333------|
E|5-5-5-----4-4-4-----------|   |------444444|

e|-----------------------------|3X
B|-----------------------------|
G|-----------------------------|
D|-----------------------------|
A|-----------------------------|
E|6-0-0-6-0-6-6-0-6-0-6-6-0-6-0|

e|----------------|
B|----------------|
G|------------7777|
D|------------6666|
A|---8b----5b-5555|
E|5-----4---------|

e|-----------------------------|3X
B|-----------------------------|
G|-----------------------------|
D|-----------------------------|
A|-----------------------------|
E|1-0-0-1-0-1-1-0-1-0-1-1-0-1-0|

e|----------------|
B|----------------|
G|------------7777|
D|------------6666|
A|---8b----5b-5555|
E|5-----4---------|

G1
e|-----------|16X
B|-----------|
G|10-10-10-10|
D|-----------|
A|10-10-10-10|
E|-----------|

G2
e|----------------------------------------------------------------|
B|----------------------------------------------------------------|
G|----------------------------------------------------------------|
D|----------------45--------------45555555555555554555555555555555|
A|----------------45--------------45555555555555554555555555555555|
E|----------------45--------------45555555555555554555555555555555|

e|--------------------------------|
B|--------------------------------|
G|7-7-7-----------7-7-7-----------|
D|6-6-6-----------6-6-6-----------|
A|5-5-5-----------5-5-5--------{5}|
E|-----005p004-5p0-----005p004----|
       ..   .          ..   .

e|----------------|4X |------------|
B|----------------|   |------------|
G|7-7-7-----------|   |7-7-7--7-7-7|
D|6-6-6-----------|   |6-6-6--6-6-6|
A|5-5-5-----------|   |5-5-5--5-5-5|
E|-----005p004-5p0|   |------------|
       ..   .

e|--------------------------|3X |------------|   Both 2X
B|--------------------------|   |------------| 
G|--------------------------|   |------------|
D|---------------------5--4-|   |------------|
A|-----8-8-8-----5-5-5--6--3|   |333333------|
E|5-5-5-----4-4-4-----------|   |------444444|

e|-----------------------------|4X
B|-----------------------------|
G|-----------------------------|
D|-----------------------------|
A|-----------------------------|
E|6-0-0-6-0-6-6-0-6-0-6-6-0-6-0|


e|------------------------|3X |-------------------------|  Both 2X
B|------------------------|   |-------------------------| 
G|------------------------|   |-------------7-7-7--7-7-7|
D|------------------------|   |-------------6-6-6--6-6-6|
A|000--00-0000-00-0000-000|   |000--00-0000-5-5-5--5-5-5|
E|000--00-0000-00-0000-000|   |000--00-0000-------------|
  ...  .. .... .. .... ...     ...  .. .... 
Добавлено: 03.05.2012
Другие материалы по этой песне:
  • Аккорды и текст

Страница создана 03.05.2012
http://primanota.ru/every-time-i-die/cities-and-years-chords.htm
Привет, Гость.
Предлагаем пройти революционный курс по гитаре.
Подарок от PrimaNota.Ru, забирай!