PrimaNota.ru - самый крупный в мире бесплатный архив песенных текстов, аккордов, табулатур и нот


Every Time I Die - Champing At The Bit - текст песни, таба, бас-таба, видео

Регистрация Запомнить меня
Войти через:  Facebook Google Twitter Vk Yandex Mail.ru

Every Time I Die - Champing At The Bit - текст песни, таба, бас-таба, видео

Печатать
Просмотров: 164
============================================================================

                           'Champing at the bit'
                            by every time i die
                            

============================================================================

tabbed by under_dose


Okay this song takes alot practice to play perfectly because if u listen 2 da
song it has really fast guitaring. The song kicks ass though.

tuning:

DADGBE

| /  slide up
| \  slide down
| h  hammer-on
| p  pull-off
| ~  vibrato
| +  harmonic
| x  Mute note



intro:

e|----------------------------|-------------------------------|
B|----------------------------|-------------------------------|
G|----------------------------|-------------------------------|
D|--------3-------3-----------|-------3-----------------------|
A|-------------------111-111--|----------------2-1-0-1-2-1-0--|
D|---2-1-----2-1-----111-111--|--2-1-----2-1---2-1-0-1-2-1-0--|
                     ... ...

verse:

e|--------------------------------------------------|
B|--------------------------------------------------|
G|--------------------------------------------------|
D|--------------------------------------------------|
A|--2-1-0-1--2-1-0-1---2-1-0-1--2-1-0--22--1-2-1-0--|
D|--2-1-0-1--2-1-0-1---2-1-0-1--2-1-0--22--1-2-1-0--|

e|--------------------------------------------------------------|
B|--------------------------------------------------------------|
G|-----------------------------------------------------------7+-|
D|-----------------------------------------------------------7+-|
A|--2-1-0-1--2-1-0-1---2-1-0-1--2-1-0--22--1-2-1-0--1-2-1-0--7+-|
D|--2-1-0-1--2-1-0-1---2-1-0-1--2-1-0--22--1-2-1-0--1-2-1-0-----|




guitar I lets this harmonic fade out before joining in with guitar II:

e|--------------------------------------------------|
B|--------------------------------------------------|
G|--------------------------------------------------|
D|--------------------------------------------------|
A|--2-1-0-1--2-1-0-1---2-1-0-1--2-1-0--22--1-2-1-0--|
D|--2-1-0-1--2-1-0-1---2-1-0-1--2-1-0--22--1-2-1-0--|

both guitarists:

e|------------------------------------------------------------|
B|------------------------------------------------------------|
G|------------------------------------------------------------|
D|------------------------------------------------------------|
A|--2-1-0-1--2-1-0-1---2-1-0-1--2-1-0--22--1-2-1-0--1-2-1-0---|
D|--2-1-0-1--2-1-0-1---2-1-0-1--2-1-0--22--1-2-1-0--1-2-1-0---|

guitar I:

e|-------------------------------------------|
B|-------------------------------------------|
G|-------------------------------------------|
D|---8--------8---------8--------8-----------|
A|-----8-0-7----8-0-7------8-0-7----8-0-7-7--|
D|-------------------------------------------|


both guitarists:

e|--------------------|
B|--------------------|
G|--------------------|
D|--------------------|
A|--1-2-1-0--1-2-1-0--|
D|--1-2-1-0--1-2-1-0--|


e|-------------------------------------------|---------|
B|-------------------------------------------|---------|
G|-------------------------------------------|---------|
D|---8--------8---------8--------8-----------|---------|
A|-----8-0-7----8-0-7------8-0-7----8-0-7-7--|--1-2-1--|
D|-------------------------------------------|--1-2-1--|

e|-------------------------------------------|-------------------|
B|-------------------------------------------|-------------------|
G|-------------------------------------------|-------------------|
D|---8--------8---------8--------8-----------|-------------------|
A|-----8-0-7----8-0-7------8-0-7----8-0-7-7--|--1-2-1-0--1-2-1-0-|
D|-------------------------------------------|--1-2-1-0--1-2-1-0-|



e|----------------------------------------------------|
B|----------------------------------------------------|
G|----------------------------------------------------|
D|----------------------------------------------------|x4
A|--2-1-0-1--2-1-0-1---2-1-0-1--2-1-0------------x--2-|
D|--2-1-0-1--2-1-0-1---2-1-0-1--2-1-0--6-6-6-6---x--2-|


on the fourth time of playing it, it changes slightly:

e|------------------------------------------------------------|
B|------------------------------------------------------------|
G|------------------------------------------------------------|
D|-------------------------------------------------8----------|
A|--2-1-0-1--2-1-0-1---2-1-0-1--2-1-0-----------------8-7-----|
D|--2-1-0-1--2-1-0-1---2-1-0-1--2-1-0--6-6-6-6-------------0--|


============================================================================

Chorus:


e|----------------------|-------------------|
G|----------------------|-------------------|
B|----------------------|-------------------|
D|-------------8--------|----------8--------|
A|----------------8-7---|-------------8-7---|
D|--2-2-2-2-----------0-|-2-2-2-2---------0-|

e|----------------------|---------------|
G|----------------------|---------------|
B|----------------------|---------------|
D|------------8---------|---------------|
A|---------------8-7----|---------------|
D|--2-2-2-2----------0--|-2-2--1-1-1--0-|

e|----------------------|-------------------|
G|----------------------|-------------------|
B|----------------------|-------------------|
D|-------------8--------|----------8--------|
A|----------------8-7---|-------------8-7---|
D|--2-2-2-2-----------0-|-2-2-2-2---------0-|

e|----------------------|----------|
G|----------------------|----------|
B|----------------------|----------|
D|------------8---------|----------|
A|---------------8-7----|------1---|
D|--2-2-2-2----------0--|-2-2--1---|


============================================================================

Breakdown:

guitar I
                          guitar I and II:    
e|-------------------------------------|    ---------------|
B|-------------------------------------|    ---------------|
G|-------------------------------------|    ---------------|
D|-------------------------------------|    ---------------|
A|--2-1-0-1--2-1-0-1---2-1-0-1--2-1-0--|    2-2---1-2-1-0--|
D|--2-1-0-1--2-1-0-1---2-1-0-1--2-1-0--|    2-2---1-2-1-0--|

guitar I
                          guitar I and II:    
e|-------------------------------------|    ----------------------|
B|-------------------------------------|    ----------------------|
G|-------------------------------------|    ----------------------|
D|-------------------------------------|    ----------------------|
A|--2-1-0-1--2-1-0-1---2-1-0-1--2-1-0--|    2-2---1-2-1-0--1-2-1-0|
D|--2-1-0-1--2-1-0-1---2-1-0-1--2-1-0--|    2-2---1-2-1-0--1-2-1-0|


e|----------------------------------------------------|
B|----------------------------------------------------|
G|----------------------------------------------------|
D|----------------------------------------------------|
A|----------------------------------------------------|
D|--2-1-0-1--2-1-0-1-1--2-1-0-1--2-1-0-1-1---1-2-1-0--|

                                        guitar I:        
e|--------------------------------------------|  -----------------|
B|--------------------------------------------|  -----------------|
G|--------------------------------------------|  --3-3-3-3--------|
D|--------------------------------------------|  -----------------|
A|--------------------------------------------|  -----------------|
D|--2-1-0-1--2-1-0-1-1--2-1-0-1--2-1-0-1-1----|  -----------------|

both guitarists:
e|----------------------------------------------------|
B|----------------------------------------------------|
G|----------------------------------------------------|
D|----------------------------------------------------|
A|----------------------------------------------------|
D|--2-1-0-1--2-1-0-1-1--2-1-0-1--2-1-0-1-1---1-2-1-0--|

e|--------------------------------------|  
B|--------------------------------------|  
G|--------------------------------------|  
D|--------------------------------------|  
A|--------------------------------------|  
D|--2-1-0-1--2-1-0-1-1--2-1-0-1--2-1-0--| 

e|--------------------------------------------|
B|--------------------------------------------|
G|--------------------------------------------|
D|-------3--------------------3---------------|
A|--------------------------------------------|
D|--2-1-----2--1-2-1-0---2-1------2--1-2-1-0--|

e|------------------|
B|------------------|
G|------------------|
D|-------8-------8--|x5
A|------------------|
D|--7-6-----7-6-----|

e|--------------------------------------------|
B|--------------------------------------------|
G|--------------------------------------------|
D|-------------------3-----------3------------|
A|--2-1-0-------------------------------------|
D|--2-1-0-------2-1-----2-1--1-------2-1-0----|

e|-----------------------------------------------------------|
B|-----------------------------------------------------------|
G|-----------------------------------------------------------|
D|--------3----------------------3----------3---------------3|
A|-----------------------------------------------------------|
D|---2-1-----2-1-xx2-x-1----2-1-----2-1--1-----2-1-0----2-1--|

e|-----------------------------------------------------------|
B|-----------------------------------------------------------|
G|-----------------------------------------------------------|
D|------------------8-----------8----------------8-----------|
A|-----------------------------------------------------------|
D|-2-1-xx7-----7-6-----7-6--6------7-6-0----7-6-----7-6-xx7--|

e|----------------------------------------------------|
B|----------------------------------------------------|
G|----------------------------------------------------|
D|-------8-----------8----------------8---------------|
A|----------------------------------------------------|
D|--7-6-----7-6--6------7-6-0----7-6-----7-6-xx2--x-1-|

e|-----------------------------------------------------------|
B|-----------------------------------------------------------|
G|-----------------------------------------------------------|
D|----------3---------3----------------3---------------------|
A|-----------------------------------------------------------|
D|---2-1--------2-1-------111---2-1--------2-1--xxx2--x1-----|
                          ... 

e|----------------------------------------------|
B|----------------------------------------------|
G|----------------------------------------------|
D|----------3---------3----------------3--------|
A|----------------------------------------------|
D|---2-1--------2-1-------111---2-1--------2-1--|
                          ...

e|------------------------------------------------|
B|------------------------------------------------|
G|------------------------------------------------|
D|------------------------------------------------|
A|-----------------------------1-2-1-0-1-2-1-0----|
D|--xxx2-x1--xxx2-x1--xxx2-x1--1-2-1-0-1-2-1-0----|

e|--------------------------------------------------|
B|--------------------------------------------------|
G|--------------------------------------------------|
D|--------------------------------------------------|x4
A|--2-1-0-1--2-1-0-1---2-1-0-1--2-1-0---------------|
D|--2-1-0-1--2-1-0-1---2-1-0-1--2-1-0--6-6-6-6--x2--|


on the fourth time of playing it, it changes slightly:

e|------------------------------------------------------------|
B|------------------------------------------------------------|
G|------------------------------------------------------------|
D|-------------------------------------------------8----------|
A|--2-1-0-1--2-1-0-1---2-1-0-1--2-1-0-----------------7-6-----|
D|--2-1-0-1--2-1-0-1---2-1-0-1--2-1-0--6-6-6-6-------------0--|


============================================================================

Chorus:


e|----------------------|-------------------|
G|----------------------|-------------------|
B|----------------------|-------------------|
D|-------------8--------|----------8--------|
A|----------------8-7---|-------------8-7---|
D|--2-2-2-2-----------0-|-2-2-2-2---------0-|

e|----------------------|---------------|
G|----------------------|---------------|
B|----------------------|---------------|
D|------------8---------|---------------|
A|---------------8-7----|---------------|
D|--2-2-2-2----------0--|-2-2--1-1-1--0-|

e|----------------------|-------------------|
G|----------------------|-------------------|
B|----------------------|-------------------|
D|-------------8--------|----------8--------|
A|----------------8-7---|-------------8-7---|
D|--2-2-2-2-----------0-|-2-2-2-2---------0-|

e|----------------------|----------|
G|----------------------|----------|
B|----------------------|----------|
D|------------8---------|----------|
A|---------------8-7----|------1---|
D|--2-2-2-2----------0--|-2-2--1---|

============================================================================

e|-----------------------------------------------------|
B|-----------------------------------------------------|
G|-----------------------------------------------------|
D|-----------------------------------------------------|
A|--2-2-2-2--x-1--2-2-2-2--x-1--2-2-2-2--x-1--2-2---1--|
D|--2-2-2-2--x-1--2-2-2-2--x-1--2-2-2-2--x-1--2-2---1--|

e|-------------------------------------------------------------|
B|-------------------------------------------------------------|
G|-----------8---------------8---------------8-----------------|
D|-------------8-7-------------8-7-------------8-7-------------|
A|--2-2-2-2----------2-2-2-2---------2-2-2-2-------------------|
D|--2-2-2-2--------0-2-2-2-2-------0-2-2-2-2-------2-2-1-1-1-0-|

e|----------------------------------------------------------------|
B|----------------------------------------------------------------|
G|-----------8---------------8---------------8--------------------|
D|-------------8-7-------------8-7-------------8-7----------------|
A|--2-2-2-2----------2-2-2-2---------2-2-2-2----------2-2---1-----|
D|--2-2-2-2--------0-2-2-2-2-------0-2-2-2-2-------0--2-2---1-----|
Добавлено: 22.04.2012
Другие материалы по этой песне:

Страница создана 29.02.2012
http://primanota.ru/every-time-i-die/champing-at-the-bit-chords.htm
Привет, Гость.
Предлагаем пройти революционный курс по гитаре.
Подарок от PrimaNota.Ru, забирай!