PrimaNota.ru - самый крупный в мире бесплатный архив песенных текстов, аккордов, табулатур и нот


Every Time I Die - California Gracefully - текст песни, таба, бас-таба, видео

Регистрация Запомнить меня
Войти через:  Facebook Google Twitter Vk Yandex Mail.ru

Every Time I Die - California Gracefully - текст песни, таба, бас-таба, видео

Печатать
Просмотров: 146
CALIFORNIA, GRACEFULLY
As recorded by Every Time I Die
(From the 2001 Album LAST NIGHT IN TOWN)

Transcribed by jamstew
        

Words by Keith Buckley Music by Every Time I Die

Gtr I (D A D G B E) - 'Gtr. I'
Gtr II (D A D G B E) - 'Gtr. II'

 Section 1
  Q=190
 4/4
  Gtr I
  E E E E E E E E   E E E E E E E E     E E E E E E E E   E E E E E E E E   4x
|-----------------|-----------------||------------------|-------------------||
|-----------------|-----------------||o-----------------|------------------o||
|-----------------|-9-------8-------||------------------|-9-------8---------||
|-9-8-7---7-8-7-8-|---9-8-7---8-7-8-||--9-8-7---7-8-7-8-|---9-8-7---8-7-8---||
|-------7---------|-----------------||o-------7---------|------------------o||
|-----------------|-----------------||------------------|-------------------||
|
| Gtr II
| W                 W                   E E E E E E E E   E E E E E E E E   4x
|-----------------|-----------------||------------------|-------------------||
|-----------------|-----------------||o-----------------|------------------o||
|-----------------|-----------------||------------------|-9-------8---------||
|-----------------|-----------------||--9-8-7---7-8-7-8-|---9-8-7---8-7-8---||
|-----------------|-----------------||o-------7---------|------------------o||
|-----------------|-----------------||------------------|-------------------||


  W          +W           +W            W
|----------|------------|------------|-18\----|
|-4--------|-(4)--------|-(4)--------|-18\----|
|-7--------|-(7)--------|-(7)--------|--------|
|----------|------------|------------|--------|
|----------|------------|------------|--------|
|----------|------------|------------|--------|
|
| W          +W           +W            W
|----------|------------|------------|-18\----|
|-4--------|-(4)--------|-(4)--------|-18\----|
|-7--------|-(7)--------|-(7)--------|--------|
|----------|------------|------------|--------|
|----------|------------|------------|--------|
|----------|------------|------------|--------|


    E E E E E E E E   E E E E E E E E  4x
||------------------|------------------||
||o-----------------|-----------------o||
||------------------|-9-------8--------||
||--9-8-7---7-8-7-8-|---9-8-7---8-7-8--||
||o-------7---------|-----------------o||
||------------------|------------------||
|
|   E E E E E E E E   E E E E E E E E  4x
||------------------|------------------||
||o-----------------|-----------------o||
||------------------|------------------||
||------------------|-2-------1--------||
||o-2-1-0---0-1-0-1-|---2-1-0---1-0-1-o||
||--------2---------|------------------||


   Section 2
    E5       D#5        E5       D#5        E5       D#5
                                                                |-3-| |-3-|
     E E E E  E E E E    E E E E  E E E E    E E E E  E E E E   Q Q Q Q Q Q
||--------------------|-------------------|-------------------|---------------||
||o-------------------|-------------------|-------------------|--------------o||
||--------------------|-------------------|-------------------|---------------||
||--14-x-x-x-13-x-x-x-|-14-x-x-x-13-x-x-x-|-14-x-x-x-13-x-x-x-|-2-----1-------||
||o-14-x-x-x-13-x-x-x-|-14-x-x-x-13-x-x-x-|-14-x-x-x-13-x-x-x-|---2-1--------o||
||--14-x-x-x-13-x-x-x-|-14-x-x-x-13-x-x-x-|-14-x-x-x-13-x-x-x-|---------6-7---||
|
|                                                               |-3-| |-3-|
|    E E E E  E E E E    E E E E  E E E E    E E E E  E E E E   Q Q Q Q Q Q
||--------------------|-------------------|-------------------|---------------||
||o-------------------|-------------------|-------------------|--------------o||
||--------------------|-------------------|-------------------|---------------||
||--14-x-x-x-13-x-x-x-|-14-x-x-x-13-x-x-x-|-14-x-x-x-13-x-x-x-|-2-----1-------||
||o-14-x-x-x-13-x-x-x-|-14-x-x-x-13-x-x-x-|-14-x-x-x-13-x-x-x-|---2-1--------o||
||--14-x-x-x-13-x-x-x-|-14-x-x-x-13-x-x-x-|-14-x-x-x-13-x-x-x-|---------6-7---||


 Section 3
  Q=165
  D5                      A
             |-3-|                   |-3-|
  W          Q Q Q H      W          Q Q Q Q  E E
|----------|------------|----------|--------------|
|----------|------------|----------|--------------|
|----------|------------|----------|--------------|
|-0--------|-2-----1----|-2--------|-2-----1------|
|-0--------|---2-1------|-4--------|---2-1--------|
|-0--------|------------|----------|----------6-7-|
|
|            |-3-|                   |-3-|
| W          Q Q Q H      W          Q Q Q Q  E E
|----------|------------|----------|--------------|
|----------|------------|----------|--------------|
|----------|------------|----------|--------------|
|-0--------|-2-----1----|-2--------|-2-----1------|
|-0--------|---2-1------|-4--------|---2-1--------|
|-0--------|------------|----------|----------6-7-|


  D5                      A
             |-3-|                   |-3-|
  W          Q Q Q H      W          Q Q Q q  Q
|----------|------------|----------|-------------|
|----------|------------|----------|-------------|
|----------|------------|----------|-------------|
|-0--------|-2-----1----|-2--------|-2-----1-----|
|-0--------|---2-1------|-4--------|---2-1-------|
|-0--------|------------|----------|-------------|
|
|            |-3-|                   |-3-|
| W          Q Q Q H      W          Q Q Q q  Q
|----------|------------|----------|-------------|
|----------|------------|----------|-------------|
|----------|------------|----------|-------------|
|-0--------|-2-----1----|-2--------|-2-----1-----|
|-0--------|---2-1------|-4--------|---2-1-------|
|-0--------|------------|----------|-------------|


 Reiteration of Section 2
  Q=190
  E5       D#5        E5       D#5        E5       D#5
                                                              |-3-| |-3-|
   E E E E  E E E E    E E E E  E E E E    E E E E  E E E E   Q Q Q Q Q Q
|-------------------|-------------------|-------------------|-------------|
|-------------------|-------------------|-------------------|-------------|
|-------------------|-------------------|-------------------|-------------|
|-14-x-x-x-13-x-x-x-|-14-x-x-x-13-x-x-x-|-14-x-x-x-13-x-x-x-|-2-----1-----|
|-14-x-x-x-13-x-x-x-|-14-x-x-x-13-x-x-x-|-14-x-x-x-13-x-x-x-|---2-1-------|
|-14-x-x-x-13-x-x-x-|-14-x-x-x-13-x-x-x-|-14-x-x-x-13-x-x-x-|---------6-7-|
|
|                                                             |-3-| |-3-|
|  E E E E  E E E E    E E E E  E E E E    E E E E  E E E E   Q Q Q Q Q Q
|-------------------|-------------------|-------------------|-------------|
|-------------------|-------------------|-------------------|-------------|
|-------------------|-------------------|-------------------|-------------|
|-14-x-x-x-13-x-x-x-|-14-x-x-x-13-x-x-x-|-14-x-x-x-13-x-x-x-|-2-----1-----|
|-14-x-x-x-13-x-x-x-|-14-x-x-x-13-x-x-x-|-14-x-x-x-13-x-x-x-|---2-1-------|
|-14-x-x-x-13-x-x-x-|-14-x-x-x-13-x-x-x-|-14-x-x-x-13-x-x-x-|---------6-7-|


  E5       D#5        E5       D#5        E5       D#5
                                                              |-3-| |-3-|
   E E E E  E E E E    E E E E  E E E E    E E E E  E E E E   Q Q Q Q Q Q
|-------------------|-------------------|-------------------|-------------|
|-------------------|-------------------|-------------------|-------------|
|-------------------|-------------------|-------------------|-------------|
|-14-x-x-x-13-x-x-x-|-14-x-x-x-13-x-x-x-|-14-x-x-x-13-x-x-x-|-2-----1-----|
|-14-x-x-x-13-x-x-x-|-14-x-x-x-13-x-x-x-|-14-x-x-x-13-x-x-x-|---2-1-------|
|-14-x-x-x-13-x-x-x-|-14-x-x-x-13-x-x-x-|-14-x-x-x-13-x-x-x-|---------6-7-|
|
|                                                             |-3-| |-3-|
|  E E E E  E E E E    E E E E  E E E E    E E E E  E E E E   Q Q Q Q Q Q
|-------------------|-------------------|-------------------|-------------|
|-------------------|-------------------|-------------------|-------------|
|-------------------|-------------------|-------------------|-------------|
|-14-x-x-x-13-x-x-x-|-14-x-x-x-13-x-x-x-|-14-x-x-x-13-x-x-x-|-2-----1-----|
|-14-x-x-x-13-x-x-x-|-14-x-x-x-13-x-x-x-|-14-x-x-x-13-x-x-x-|---2-1-------|
|-14-x-x-x-13-x-x-x-|-14-x-x-x-13-x-x-x-|-14-x-x-x-13-x-x-x-|---------6-7-|


   Section 4
    PM-|                                PM---|
    q  q  E E E E   E E E E E E E E  4x H    H
||----------------|------------------||-----------|
||o---------------|-5-4-------4-----o||-----------|
||--------5-4-5-4-|-----5-4-5---5-4--||-----------|
||----------------|------------------||-----------|
||o---------------|-----------------o||-----------|
||--0--0----------|------------------||-0----0----|
|
|   PM-|                                PM---|
|   q  q  H         W                4x H    H
||----------------|------------------||-----------|
||o---------------|-----------------o||-----------|
||----------------|------------------||-----------|
||----------------|------------------||-----------|
||o---------------|-----------------o||-----------|
||--0--0----------|------------------||-0----0----|


  W          +H     Q  Q    W
|----------|--------------|----------|
|-4--------|-(4)----------|-4--------|
|-7--------|-(7)----------|-7--------|
|----------|--------------|----------|
|----------|--------------|----------|
|----------|--------0--0--|----------|
|
| W          +H     Q  Q    W
|----------|--------------|----------|
|-4--------|-(4)----------|-4--------|
|-7--------|-(7)----------|-7--------|
|----------|--------------|----------|
|----------|--------------|----------|
|----------|--------0--0--|----------|


  +H     Q  Q    +W           +Q   Q  Q  Q
|--------------|------------|----------------|
|-(4)-------4--|-(4)--------|-(4)------------|
|-(7)-------7--|-(7)--------|-(7)------------|
|--------------|------------|----------------|
|--------------|------------|----------------|
|--------0-----|------------|------0--0--0---|
|
| +H     Q  Q    +W           +Q   Q  Q  Q
|--------------|------------|----------------|
|-(4)-------4--|-(4)--------|-(4)------------|
|-(7)-------7--|-(7)--------|-(7)------------|
|--------------|------------|----------------|
|--------------|------------|----------------|
|--------0-----|------------|------0--0--0---|


  W          +H     Q  Q    Q  Q  Q  Q    Q  Q  H
|----------|--------------|-------------|------------|
|-4--------|-(4)----------|-------------|------------|
|-7--------|-(7)----------|-------------|------------|
|----------|--------------|-------------|------------|
|----------|--------------|-------------|------------|
|----------|--------0--0--|-0--0--0--0--|-0--0-------|
|
| W          +H     Q  Q    Q  Q  Q  Q    Q  Q  H
|----------|--------------|-------------|------------|
|-4--------|-(4)----------|-------------|------------|
|-7--------|-(7)----------|-------------|------------|
|----------|--------------|-------------|------------|
|----------|--------------|-------------|------------|
|----------|--------0--0--|-0--0--0--0--|-0--0-------|


 Section 5
                                                          N.C.
                                                         2/4
  PM-|     PM------------|       PM------------|
  Q  Q  Q  Q    Q  Q  Q  Q    Q  Q  Q  Q    Q  Q  Q  Q    Q  Q
|-------------|-------------|-------------|-------------|-------|
|-------1-----|-------------|-1-----------|-------1-----|-------|
|-------4-----|-------------|-4-----------|-------4-----|-3--2--|
|-------------|-------------|-------------|-------------|-------|
|-------------|-------------|-------------|-------------|-------|
|-0--0-----0--|-0--0--0--0--|----0--0--0--|-0--0-----0--|-------|
|
| Q  Q  Q  Q    Q  Q  Q  Q    Q  Q  Q  Q    Q  Q  Q  Q    Q  Q
|-------------|-------------|-------------|-------------|-------|
|-------1-----|-------------|-1-----------|-------1-----|-6--5--|
|-------4-----|-------------|-4-----------|-------4-----|-------|
|-------------|-------------|-------------|-------------|-------|
|-------------|-------------|-------------|-------------|-------|
|-0--0-----0--|-0--0--0--0--|----0--0--0--|-0--0-----0--|-------|


 4/4
  Q  Q  Q  Q    Q  Q  Q  Q    Q  Q  Q  Q    Q  Q  Q  Q
|-------------|-------------|-------------|--------------|
|-------1-----|-------------|-1-----------|-------1------|
|-------4-----|-------------|-4-----------|-------4------|
|-------------|-------------|-------------|--------------|
|-------------|-------------|-------------|--------------|
|-0--0-----0--|-0--0--0--0--|----0--0--0--|-0--0-----0---|
|
| Q  Q  Q  Q    Q  Q  Q  Q    Q  Q  Q  Q    Q  Q  Q  Q
|-------------|-------------|-------------|--------------|
|-------1-----|-------------|-1-----------|-------1------|
|-------4-----|-------------|-4-----------|-------4------|
|-------------|-------------|-------------|--------------|
|-------------|-------------|-------------|--------------|
|-0--0-----0--|-0--0--0--0--|----0--0--0--|-0--0-----0---|


                      PM----|
  E E E E E E E E     E E E E E E E E   E E E E E E E E  4x
|-----------------||------------------|------------------||
|-5-4-------4-----||o-----------------|-5-4-------4-----o||
|-----5-4-5---5-4-||----------5-4-5-4-|-----5-4-5---5-4--||
|-----------------||------------------|------------------||
|-----------------||o-----------------|-----------------o||
|-----------------||--0-0-0-0---------|------------------||
|
|                     PM----|
| E E E E E E E E     E E E E E E E E   E E E E E E E E  4x
|-----------------||------------------|------------------||
|-5-4-------4-----||o-----------------|-5-4-------4-----o||
|-----5-4-5---5-4-||----------5-4-5-4-|-----5-4-5---5-4--||
|-----------------||------------------|------------------||
|-----------------||o-----------------|-----------------o||
|-----------------||--0-0-0-0---------|------------------||


  C5                             B5                             E5
  W           E  E E E E E E E   W          +W                  W
|----------|-------------------|----------|-------------------|------|
|----------|--5--4-------4-----|----------|-------------------|-5----|
|-5--------|-------5-4-5---5-4-|-4--------|-(4)---------------|------|
|----------|-------------------|-4--------|-(4)---------------|------|
|----------|-------------------|-2--------|-(2)---------------|------|
|----------|-------------------|----------|-------------------|------|
|
| W          +W                  W           E  E E E E E E E   W
|----------|-------------------|----------|-------------------|------|
|----------|-------------------|----------|--5--4-------4-----|-5----|
|-5--------|-(5)---------------|-4--------|-------5-4-5---5-4-|-4----|
|-5--------|-(5)---------------|----------|-------------------|-2----|
|-3--------|-(3)---------------|----------|-------------------|------|
|----------|-------------------|----------|-------------------|------|


  E5                                        C5    A5     G#5  C5
  E E E E E E E E   W           W            H    H      H     H
|-----------------|----------|------------|------------|------------||
|-5-4-------4-----|-5s=======|==4---------|------------|------------||
|-----5-4-5---5-4-|----------|------------|------------|------------||
|-----------------|----------|------------|-10----7----|-6----10----||
|-----------------|----------|------------|-10----7----|-6----10----||
|-----------------|----------|------------|-10----7----|-6----10----||
|
| W                 W          +W            H    H      H     H
|-----------------|----------|------------|------------|------------||
|-5---------------|-4--------|-(4)--------|------------|------------||
|-4---------------|----------|------------|------------|------------||
|-2---------------|----------|------------|-10----7----|-6----10----||
|-----------------|----------|------------|-10----7----|-6----10----||
|-----------------|----------|------------|-10----7----|-6----10----||


 Section 6
  E E E E E E E E   E E E E E E E E   E E E E E E E E   E E E E E E E E
|-----------------|-----------------|-----------------|-----------------|
|-----------------|-----------------|-----------------|-----------------|
|-----------------|-----------------|-----------------|-----------------|
|-9-8-7---7-8-7-8-|-9-8-7---7-8-7-8-|-9-8-7---9-8-7---|-7-8-7-8-9-8-7---|
|-------7---------|-------7---------|-------7-------7-|---------------7-|
|-----------------|-----------------|-----------------|-----------------|
|
| W                 E E E E E E E E   E E E E E E E E   E E E E E E E E
|-----------------|-----------------|-----------------|-----------------|
|-----------------|-----------------|-----------------|-----------------|
|-----------------|-----------------|-----------------|-----------------|
|-----------------|-9-8-7---7-8-7-8-|-9-8-7---9-8-7---|-7-8-7-8-9-8-7---|
|-----------------|-------7---------|-------7-------7-|---------------7-|
|-----------------|-----------------|-----------------|-----------------|


  D5                      D5                        D5
  s s e s s e  E E  E E   s s e s s e s s e s s e   s s e s s e  E E  E E
|-----------------------|-------------------------|------------------------|
|-----------------------|-------------------------|------------------------|
|-----------------------|-------------------------|------------------------|
|-------------10-9----9-|-------------------------|-------------10-9----9--|
|-0-0-0-0-0-0------10---|-0-0-0-0-0-0-0-0-0-0-0-0-|-0-0-0-0-0-0------10----|
|-0-0-0-0-0-0-----------|-0-0-0-0-0-0-0-0-0-0-0-0-|-0-0-0-0-0-0------------|
|
| s s e s s e  E E  E E   s s e s s e s s e s s e   s s e s s e  E E  E E
|-----------------------|-------------------------|------------------------|
|-----------------------|-------------------------|------------------------|
|-----------------------|-------------------------|------------------------|
|-------------10-9----9-|-------------------------|-------------10-9----9--|
|-0-0-0-0-0-0------10---|-0-0-0-0-0-0-0-0-0-0-0-0-|-0-0-0-0-0-0------10----|
|-0-0-0-0-0-0-----------|-0-0-0-0-0-0-0-0-0-0-0-0-|-0-0-0-0-0-0------------|


  D5                                        D5
  s s e s s e  E E  E E   E E E E E E E E   s s e s s e  E E  E E
|-----------------------|-----------------|-----------------------|
|-----------------------|-----------------|-----------------------|
|-----------------------|-9-------8-------|-----------------------|
|-------------10-9----9-|---9-8-7---8-7-8-|-------------10-9----9-|
|-0-0-0-0-0-0------10---|-----------------|-0-0-0-0-0-0------10---|
|-0-0-0-0-0-0-----------|-----------------|-0-0-0-0-0-0-----------|
|
| s s e s s e  E E  E E   E E E E E E E E   s s e s s e  E E  E E
|-----------------------|-----------------|-----------------------|
|-----------------------|-----------------|-----------------------|
|-----------------------|-----------------|-----------------------|
|-------------10-9----9-|-2-------1-------|-------------10-9----9-|
|-0-0-0-0-0-0------10---|---2-1-0---1-0-1-|-0-0-0-0-0-0------10---|
|-0-0-0-0-0-0-----------|-----------------|-0-0-0-0-0-0-----------|


  D5                        D5
  s s e s s e s s e s s e   s s e s s e  E E  E E   E E E E E E E E
|-------------------------|-----------------------|-----------------|
|-------------------------|-----------------------|-----------------|
|-------------------------|-----------------------|-----------------|
|-------------------------|-------------10-9----9-|-9-8-7---7-8-7-8-|
|-0-0-0-0-0-0-0-0-0-0-0-0-|-0-0-0-0-0-0------10---|-------7---------|
|-0-0-0-0-0-0-0-0-0-0-0-0-|-0-0-0-0-0-0-----------|-----------------|
|
| s s e s s e s s e s s e   s s e s s e  E E  E E   E E E E E E E E
|-------------------------|-----------------------|-----------------|
|-------------------------|-----------------------|-----------------|
|-------------------------|-----------------------|-----------------|
|-------------------------|-------------10-9----9-|-----------------|
|-0-0-0-0-0-0-0-0-0-0-0-0-|-0-0-0-0-0-0------10---|-2-1-0---0-1-0-1-|
|-0-0-0-0-0-0-0-0-0-0-0-0-|-0-0-0-0-0-0-----------|-------2---------|


                                      D5
  E E E E E E E E   E E E E E E E E   s s e s s e  E E  E E
|-----------------|-----------------|-----------------------|
|-----------------|-----------------|-----------------------|
|-----------------|-----------------|-----------------------|
|-9-8-7---9-8-7---|-7-8-7-8-9-8-7---|-------------10-9----9-|
|-------7-------7-|---------------7-|-0-0-0-0-0-0------10---|
|-----------------|-----------------|-0-0-0-0-0-0-----------|
|
| E E E E E E E E   E E E E E E E E   s s e s s e  E E  E E
|-----------------|-----------------|-----------------------|
|-----------------|-----------------|-----------------------|
|-----------------|-----------------|-----------------------|
|-----------------|-----------------|-------------10-9----9-|
|-2-1-0---2-1-0---|-0-1-0-1-2-1-0---|-0-0-0-0-0-0------10---|
|-------2-------2-|---------------2-|-0-0-0-0-0-0-----------|


  D5                        D5                      D5
  s s e s s e s s e s s e   s s e s s e  E E  E E   s s e s s e  E E  E E
|-------------------------|-----------------------|------------------------|
|-------------------------|-----------------------|------------------------|
|-------------------------|-----------------------|------------------------|
|-------------------------|-------------10-9----9-|-------------10-9----9--|
|-0-0-0-0-0-0-0-0-0-0-0-0-|-0-0-0-0-0-0------10---|-0-0-0-0-0-0------10----|
|-0-0-0-0-0-0-0-0-0-0-0-0-|-0-0-0-0-0-0-----------|-0-0-0-0-0-0------------|
|
| s s e s s e s s e s s e   s s e s s e  E E  E E   s s e s s e  E E  E E
|-------------------------|-----------------------|------------------------|
|-------------------------|-----------------------|------------------------|
|-------------------------|-----------------------|------------------------|
|-------------------------|-------------10-9----9-|-------------10-9----9--|
|-0-0-0-0-0-0-0-0-0-0-0-0-|-0-0-0-0-0-0------10---|-0-0-0-0-0-0------10----|
|-0-0-0-0-0-0-0-0-0-0-0-0-|-0-0-0-0-0-0-----------|-0-0-0-0-0-0------------|


                    D5                      D5
  E E E E E E E E   s s e s s e  E E  E E   s s e s s e s s e s s e
|-----------------|-----------------------|-------------------------|
|-----------------|-----------------------|-------------------------|
|-9-------8-------|-----------------------|-------------------------|
|---9-8-7---8-7-8-|-------------10-9----9-|-------------------------|
|-----------------|-0-0-0-0-0-0------10---|-0-0-0-0-0-0-0-0-0-0-0-0-|
|-----------------|-0-0-0-0-0-0-----------|-0-0-0-0-0-0-0-0-0-0-0-0-|
|
| E E E E E E E E   s s e s s e  E E  E E   s s e s s e s s e s s e
|-----------------|-----------------------|-------------------------|
|-----------------|-----------------------|-------------------------|
|-----------------|-----------------------|-------------------------|
|-2-------1-------|-------------10-9----9-|-------------------------|
|---2-1-0---1-0-1-|-0-0-0-0-0-0------10---|-0-0-0-0-0-0-0-0-0-0-0-0-|
|-----------------|-0-0-0-0-0-0-----------|-0-0-0-0-0-0-0-0-0-0-0-0-|


                                                              N.C.
  E E E E E E E E   E E E E q  q    E E E E E E E E   E E E E  H
|-----------------|---------------|-----------------|------------------|
|-----------------|---------------|-----------------|------------------|
|-----------------|-9-------------|-----------------|-9----------------|
|-9-8-7---7-8-7-8-|---9-8-7-------|-9-8-7---7-8-7-8-|---9-8-7--8b10----|
|-------7---------|---------------|-------7---------|------------------|
|-----------------|---------0--0--|-----------------|------------------|
|
| E E E E E E E E   E E E E q  q    E E E E E E E E   E E E E  H
|-----------------|---------------|-----------------|------------------|
|-----------------|---------------|-----------------|------------------|
|-----------------|---------------|-----------------|------------------|
|-----------------|-2-------------|-----------------|-2----------------|
|-2-1-0---0-1-0-1-|---2-1-0-------|-2-1-0---0-1-0-1-|---2-1-0----------|
|-------2---------|---------0--0--|-------2---------|---------12b14----|


                   5/4                4/4
  E E E E E E E E   E E E E q  q  q    E E E E E E E E
|-----------------|------------------|-----------------|
|-----------------|------------------|-----------------|
|-----------------|-9----------------|-----------------|
|-9-8-7---7-8-7-8-|---9-8-7----------|-9-8-7---7-8-7-8-|
|-------7---------|------------------|-------7---------|
|-----------------|---------0--0--0--|-----------------|
|
| E E E E E E E E   E E E E q  q  q    E E E E E E E E
|-----------------|------------------|-----------------|
|-----------------|------------------|-----------------|
|-----------------|------------------|-----------------|
|-----------------|-2----------------|-----------------|
|-2-1-0---0-1-0-1-|---2-1-0----------|-2-1-0---0-1-0-1-|
|-------2---------|---------0--0--0--|-------2---------|


          D5 D5   D5    D5      D5 D5 D5
                               3/4
  E E E E q  q    q  Q  q  Q    q  q  q
|---------------|-------------|----------*|
|---------------|----1-----1--|----------*|
|-9-------------|----4-----4--|----------*|
|---9-8-7-------|-------------|----------*|
|---------0--0--|-0-----0-----|-0--0--0--*|
|---------0--0--|-0-----0-----|-0--0--0--*|
|
| E E E E q  q    q  Q  q  Q    q  q  q
|---------------|-------------|----------*|
|---------------|----1-----1--|----------*|
|---------------|----4-----4--|----------*|
|-2-------------|-------------|----------*|
|---2-1-0-0--0--|-0-----0-----|-0--0--0--*|
|---------0--0--|-0-----0-----|-0--0--0--*|



Duration Legend
---------------
W - whole; H - half; Q - quarter; E - 8th; S - 16th; T - 32nd; X - 64th; a - acciaccatura
+ - note tied to previous; . - note dotted; .. - note double dotted
Uncapitalized letters represent notes that are staccato (1/2 duration)
Irregular groupings are notated above the duration line
Duration letters will always appear directly above the note/fret number it represents the
duration for.  Duration letters with no fret number below them represent rests.  Multi-
bar rests are notated in the form Wxn, where n is the number of bars to rest for.  Low
melody durations appear below the staff

Tablature Legend
----------------
 h   - hammer-on
 p   - pull-off
 b   - bend
 pb  - pre-bend
 r   - bend release (if no number after the r, then release immediately)
 /\  - slide into or out of (from/to "nowhere")
 s   - legato slide
 S   - shift slide
 - natural harmonic
[n]  - artificial harmonic
n(n) - tapped harmonic
 ~   - vibrato
 tr  - trill
 T   - tap
 TP  - trem. picking
 PM  - palm muting
\n/  - tremolo bar dip; n = amount to dip
 \n  - tremolo bar down
 n/  - tremolo bar up
/n\  - tremolo bar inverted dip
 =   - hold bend; also acts as connecting device for hammers/pulls
 <> - volume swell (louder/softer)
 x   - on rhythm slash represents muted slash
 o   - on rhythm slash represents single note slash

Misc Legend
-----------
 |  - bar
||  - double bar
||o - repeat start
o|| - repeat end
*|  - double bar (ending)
 :  - bar (freetime)
 $  - Segno
 &  - Coda
Tempo markers -  = BPM(8/16=s8/s16), where s8 = swing 8ths, s16 = swing 16ths

Добавлено: 12.07.2012
Другие материалы по этой песне:

Страница создана 02.03.2012
http://primanota.ru/every-time-i-die/california-gracefully-chords.htm
Привет, Гость.
Предлагаем пройти революционный курс по гитаре.
Подарок от PrimaNota.Ru, забирай!