PrimaNota.ru - самый крупный в мире бесплатный архив песенных текстов, аккордов, табулатур и нот


Every Time I Die - Business Casualty - таба, видео

Регистрация Запомнить меня
Войти через:  Facebook Google Twitter Vk Yandex Mail.ru

Every Time I Die - Business Casualty - таба, видео

Печатать
Просмотров: 84
-----------------------------------------------------------------
Business Casualty - Every Time I Die
-----------------------------------------------------------------
Tabbed by: Jake Miller (millarso)
Email: millarso2.0@gmail.com
Tuning: Drop D

Intro (bass only)

Section 1
Guitar 1
e|---------------------------------|
B|---------------------------------|
G|---------------------------------|
D|-8-8-8-8-7-7-7-7-7-7-7-7-6-6-6-6-|x2
A|-6-6-6-6-5-5-5-5-5-5-5-5-4-4-4-4-|
D|---------------------------------|

e|---------------------------------|
B|---------------------------------|
G|---------------------------------|
D|-7-7-7-7-7-7-7-7-6-6-6-6-6-6-6-6-|x2
A|-5-5-5-5-5-5-5-5-4-4-4-4-4-4-4-4-|
D|---------------------------------|

Section 2
Guitar 1
e|---------------------------------|
B|---------------------------------|
G|---------------------------------|
D|-------8-8-8-7-7-------7-7-7-5-5-|x2
A|-5-5-5-----------4-4-4-----------|
D|---------------------------------|

Guitar 2
e|---------------------------------|
B|---------------------------------|
G|---------------------------------|
D|---------------------------------|x2
A|-------6-6-6-5-5-------5-5-5-3-3-|
D|-5-5-5-----------4-4-4-----------|

Section 3
e|-----------------|
B|-----------------|
G|-----------------|
D|-5-5-5-5-4-4-4-4-|x4
A|-5-5-5-5-4-4-4-4-|
D|-5-5-5-5-4-4-4-4-|

Section 1 x1
Section 3 x1

Section 4
Both Guitars
e|----------------------|
B|-4------5------8------|
G|-5-(x8)-8-(x4)-9-(x4)-|
D|----------------------|x2
A|----------------------|
D|----------------------|

Guitar 1
e|------------------------|
B|-8------11------15------|
G|-9-(x8)-12-(x4)-16-(x4)-|
D|------------------------|x2
A|------------------------|
D|------------------------|

Guitar 2
e|----------------------|
B|-4------5------8------|
G|-5-(x8)-8-(x4)-9-(x4)-|
D|----------------------|x2
A|----------------------|
D|----------------------|

Section 5
Guitar 1
e|---------------------------|
B|---------------------------|
G|-0-15-12--0-16-15--0-19-16-|
D|---------------------------|x4
A|---------------------------|
D|---------------------------|

Guitar 2
e|----------------------|
B|----------------------|
G|-0-8-5--0-9-8--0-12-9-|
D|----------------------|x4
A|----------------------|
D|----------------------|

Section 6             1st Ending    2nd Ending
e|-----------------|  |---------|-----------------|
B|-----------------|  |---------|-----------------|
G|-----------------|  |---------|-----------------|
D|-----------------|x4|---------|-----------------|(Play both endings twice)
A|-----4h5-----3h4-|  |---------|-----------------|
D|-1h2-----0h1-----|  |-000-000-|-000-000-222-222-|
                        ... ...   ... ... ... ...

Section 3 x1
Section 4 x1 (with addition of a very high shriek, pitch-shifted notes?)

Section 7
e|-------------------------------------|
B|-------------------------------------|
G|-------------------------------------|
D|-------------------0h1p0-------------|x4
A|-0h1p0-------------------3-4-4-4-4-4-|
D|-------4-3-3-3-3-3-------------------|

Section 6 (just the main riff x4 and the 1st ending)
Ends with the Section 4 line as the Guitar 1 line just hangs instead of strums

Note that I am confident on most of this except Section 4 which was hard for me to make out.
Please rate & comment.
Thanks,
millarso
Добавлено: 15.09.2013
Другие материалы по этой песне:

Страница создана 14.07.2013
http://primanota.ru/every-time-i-die/business-casualty-chords.htm
Привет, Гость.
Предлагаем пройти революционный курс по гитаре.
Подарок от PrimaNota.Ru, забирай!