PrimaNota.ru - самый крупный в мире бесплатный архив песенных текстов, аккордов, табулатур и нот


Every Time I Die - Bored Stiff - текст песни, таба, видео

Регистрация Запомнить меня
Войти через:  Facebook Google Twitter Vk Yandex Mail.ru

Every Time I Die - Bored Stiff - текст песни, таба, видео

Печатать
Просмотров: 132
Bored Stiff by Every Time I Die

This tab isnt perfect, only a basis for what it is, feel free to take it and change it to make it correct

Tuning: Drop D
E
B
G
D
A
D

|-----------------------------------------------------|
|-----------------------------------------------------|
|-----------------------12----------------------------|
|-0---------------------11----------------------------|
|-0----------7----------10----------------------------|
|-0-------------8---0---------------------------------|

  I was wrong               Close one
|------------------------------------------------------|
|------------------------------------------------------|
|----------------------------9--9--9-------------------|
|----------------------------8--8--8-------------------|
|--------7-----------7-------7--7--7-----------7-------|
|--0--8-----8--0--8-----8-------------8--0--8------8---|

  I am wrong                                  I said it
|------------------------------------------------------------|
|------------------------------------------------------------|
|----------------------------9--9--9-------------------12----|
|----------------------------8--8--8-------------------11----|
|--------7-----------7-------7--7--7-----------7----7--10----|
|--0--8-----8--0--8-----8-------------8--0--8-----8----------|

  It was wrong           I mean it
|------------------------------------------------------------|
|------------------------------------------------------------|
|----------------------------9--9--9-------------------12----|
|----------------------------8--8--8-------------------11----|
|--------7-----------7-------7--7--7-----------7----7--10----|
|--0--8-----8--0--8-----8-------------8--0--8-----8----------|

  Did it stick          Come down from thereeeee
|------------------------------------------------------------|
|------------------------------------------------------------|
|----------------------------9--9--9-------------------12----|
|----------------------------8--8--8-------------------11----|
|--------7-----------7-------7--7--7-----------7----7--10----|
|--0--8-----8--0--8-----8-------------8--0--8-----8----------|

  
  Come down from thereeeeeeeeeeeeeeeeeeeee
|---------------------------------------------------|
|---------------------------------------------------|
|----------12----------------12-------------12------|
|----------11----------------11-------------11------|
|--7-------10--------7-------10-----7-------10------|
|-----8--0--------------8--0------------8--0--------|

 I   know    its    haaaaard             to swallow
|---------------------------------------------------|
|---------------------------------------------------|
|---------------------------------------------------|
|---------------------------------------------------|
|--7-----------7---------7--------------------------|
|----8-0-10------8-0-10----8-0-10-------------------|

     When your head   is      overturned
|----------------------------------------------------|
|----------------------------------------------------|
|----------------------------------------------------|
|----------------------------------------------------|
|--7-----------7---------7-----------0-0-0-0-0-0-0-0-|
|----8-0-10------8-0-10----8-0-10----0-0-0-0-0-0-0-0-|


  Hey there  Girls  Im a  Cunt
|---------------------------------------------------|
|---------------------------------------------------|
|--12--12-----12-----12----12-----------------------|
|--11--11-----11-----11----11-----------------------|
|--10--10-----10-----10----10-----------------------|
|---------------------------------------------------|


There was venom in the heart of the dagger.
They found a worm in your pearls saying prayers.
All is finally infested, unless we blossomed in the cankerous air.
 |-----------------------------------------------------------|
 |-----------------------------------------------------------|
o|-------------12------------12-----------12-----------------|o
 |-------------11------------11-----------11-----------------|
o|---0-0-0-0-0-10--0-0-0-0-0-10-0-0-0-0-0-10-0-0-0-0-0-0-0-0-|o  (x2)
 |---0-0-0-0-0-----0-0-0-0-0----0-0-0-0-0----0-0-0-0-0-0-0-0-|


    Only    Hell   Can help us
|----------------------------------------------------|
|------------------------------------<8>-------------|
|----------------------------------------------------|
|----------------------------------------------------|
|------------------------------7---------------------|
|----7-8-----7-8----7-8----------8--0----------------|


  I got off                 Just once
|------------------------------------------------------|
|------------------------------------------------------|
|----------------------------9--9--9-------------------|
|----------------------------8--8--8-------------------|
|--------7-----------7-------7--7--7-----------7-------|
|--0--8-----8--0--8-----8-------------8--0--8------8---|


  You were right                              I admit it
|------------------------------------------------------------|
|------------------------------------------------------------|
|----------------------------9--9--9-------------------------|
|----------------------------8--8--8--------------------10---|
|--------7-----------7-------7--7--7-----------7-----7--10---|
|--0--8-----8--0--8-----8-------------8--0--8-----8----------|


  You weren't soft      Just better
|------------------------------------------------------------|
|------------------------------------------------------------|
|----------------------------9--9--9-------------------------|
|----------------------------8--8--8-------------------10----|
|--------7-----------7-------7--7--7-----------7----7--10----|
|--0--8-----8--0--8-----8-------------8--0--8-----8----------|


  Did you flinch?          Keep that radio dry
|------------------------------------------------------------|
|------------------------------------------------------------|
|----------------------------9--9--9-------------------------|
|----------------------------8--8--8-------------------10----|
|--------7-----------7-------7--7--7-----------7----7--10----|
|--0--8-----8--0--8-----8-------------8--0--8-----8----------|



|---------------------------------------------------|
|---------------------------------------------------|
|---------------------------------------------------|
|----------10-------------------------10------------|
|--7----7--10--0-0-0-0-0-0----7----7--10------------|
|-----8--------0-0-0-0-0-0-------8------------------|


  Sorry     You  Were All Mine  
|----------------------------------|
|----------------------------------|
|--12--12-----12-------12----12----|
|--11--11-----11-------11----11----| (x2)
|--10--10-----10-------10----10----|
|----------------------------------|



---------------------------------|
---------------------------------|
--12--12------12------12---12----|
--11--11------11------11---11----| (x till its over with some variation)
--10--10-0-0--10-0-0--10-0-10----|
---------0-0-----0-0-----0-------|

Добавлено: 16.05.2012
Другие материалы по этой песне:
  • Аккорды и текст

Страница создана 16.05.2012
http://primanota.ru/every-time-i-die/bored-stiff-chords.htm
Привет, Гость.
Предлагаем пройти революционный курс по гитаре.
Подарок от PrimaNota.Ru, забирай!