PrimaNota.ru - самый крупный в мире бесплатный архив песенных текстов, аккордов, табулатур и нот


Every Time I Die - Apocalypse Now And Then - текст песни, таба, бас-таба, видео

Регистрация Запомнить меня
Войти через:  Facebook Google Twitter Vk Yandex Mail.ru

Every Time I Die - Apocalypse Now And Then - текст песни, таба, бас-таба, видео

Печатать
Просмотров: 140
Gtr I (D A D G B E) - 'Untitled'
Gtr II (D A D G B E) - 'Untitled'

 Guitar intro      Guitar intro
  Q=180
                                      F#+  F#+  F6
 4/4
  Gtr I
  E E E E E E E E   E E E E E E E E   Q.   Q.   Q    +W
|-----------------|-----------------|--------------|--------|
|-----------------|-----------------|--------------|--------|
|-----------------|-----------------|--------------|--------|
|-----------------|-----------------|-4----4----3--|-(3)----|
|---------2-0-----|-------5---------|-5----5----5--|-(5)----|
|-0-3-4-0-----4-3-|-0-3-0---3-0-3-4-|-4----4----3--|-(3)----|
|
| Gtr II
| W                 W                 Q.   Q.   Q    +W
|-----------------|-----------------|--------------|--------|
|-----------------|-----------------|--------------|--------|
|-----------------|-----------------|--------------|--------|
|-----------------|-----------------|-4----4----3--|-(3)----|
|-----------------|-----------------|-5----5----5--|-(5)----|
|-----------------|-----------------|-4----4----3--|-(3)----|


   Section 1
                                                          F#F6
    E E E E E E E E   E E E E E E E E   E E E E E E E E   E E H.     4x
||------------------|-----------------|-----------------|------------||
||o-----------------|-----------------|-----------------|-----------o||
||------------------|-----------------|-----------------|------------||
||------------------|-----------------|-----------------|------------||
||o-----------------|-2-0---------2-0-|---------2-0-2-0-|-5-5-------o||
||--0-3-4-3-0-3-4-0-|-----4-3-0-3-----|-4-3-0-3---------|-4-3--------||
|
|   E E E E E E E E   E E E E E E E E   E E E E E E E E   E E H.     4x
||------------------|-----------------|-----------------|------------||
||o-----------------|-----------------|-----------------|-----------o||
||------------------|-----------------|-----------------|------------||
||------------------|-----------------|-----------------|------------||
||o-----------------|-2-0---------2-0-|---------2-0-2-0-|-5-5-------o||
||--0-3-4-3-0-3-4-0-|-----4-3-0-3-----|-4-3-0-3---------|-4-3--------||


  D5                                   F#+  F#+  F6
  E E E  E E E E E   E E E E E E E E   Q.   Q.   Q
|------------------|-----------------|--------------|
|------------------|-----------------|--------------|
|------------------|-----------------|--------------|
|------------------|-----------------|-4----4----3--|
|----------2-0-----|-------5---------|-5----5----5--|
|-0-3-4--0-----4-3-|-0-3-0---3-0-3-4-|-4----4----3--|
|
| E E H.             W                 Q.   Q.   Q
|------------------|-----------------|--------------|
|------------------|-----------------|--------------|
|------------------|-----------------|--------------|
|-0----------------|-----------------|-4----4----3--|
|-0----------------|-----------------|-5----5----5--|
|-0----------------|-----------------|-4----4----3--|


 Section 2
  E E E E E E E E   E E E E E E E E   E E E E E E E E
|-----------------|-----------------|-----------------|
|-----------------|-----------------|-----------------|
|-----------------|-----------------|-----------------|
|-----------------|-----------------|-----------------|
|---------2-0-----|-------5---------|---------2-0-----|
|-0-3-4-0-----4-3-|-0-3-0---3-0-3-4-|-0-3-4-0-----4-3-|
|
| E E E E E E E E   E E E E E E E E   E E E E E E E E
|-----------------|-----------------|-----------------|
|-----------------|-----------------|-----------------|
|-----------------|-----------------|-----------------|
|-----------------|-----------------|-----------------|
|---------2-0-----|-------5---------|---------2-0-----|
|-0-3-4-0-----4-3-|-0-3-0---3-0-3-4-|-0-3-4-0-----4-3-|


         D5      D5
  E E Q  s s s s q    E E E E E E E E   E E E E E E E E
|-------------------|-----------------|-----------------|
|-------------------|-----------------|-----------------|
|-------------------|-----------------|-----------------|
|-------------------|-----------------|-----------------|
|--------0-0-0-0-0--|---------2-0-----|-------5---------|
|-4-3----0-0-0-0-0--|-0-3-4-0-----4-3-|-0-3-0---3-0-3-4-|
|
| E E Q  s s s s q    E E E E E E E E   E E E E E E E E
|-------------------|-----------------|-----------------|
|-------------------|-----------------|-----------------|
|-------------------|-----------------|-----------------|
|-------------------|-----------------|-----------------|
|--------0-0-0-0-0--|---------2-0-----|-------5---------|
|-4-3----0-0-0-0-0--|-0-3-4-0-----4-3-|-0-3-0---3-0-3-4-|


  F#+  F#+  F6
  Q.   Q.   Q    E E E E E E E E   E E E E E E E E
|--------------|-----------------|-----------------|
|--------------|-----------------|-----------------|
|--------------|-----------------|-----------------|
|-4----4----3--|-----------------|-----------------|
|-5----5----5--|---------2-0-----|-------5---------|
|-4----4----3--|-0-3-4-0-----4-3-|-0-3-0---3-0-3-4-|
|
| Q.   Q.   Q    E E E E E E E E   E E E E E E E E
|--------------|-----------------|-----------------|
|--------------|-----------------|-----------------|
|--------------|-----------------|-----------------|
|-4----4----3--|-----------------|-----------------|
|-5----5----5--|---------2-0-----|-------5---------|
|-4----4----3--|-0-3-4-0-----4-3-|-0-3-0---3-0-3-4-|


                           D5      D5
  E E E E E E E E   E E Q  s s s s q    E E E E E E E E
|-----------------|-------------------|-----------------|
|-----------------|-------------------|-----------------|
|-----------------|-------------------|-----------------|
|-----------------|-------------------|-----------------|
|---------2-0-----|--------0-0-0-0-0--|---------2-0-----|
|-0-3-4-0-----4-3-|-4-3----0-0-0-0-0--|-0-3-4-0-----4-3-|
|
| E E E E E E E E   E E Q  s s s s q    E E E E E E E E
|-----------------|-------------------|-----------------|
|-----------------|-------------------|-----------------|
|-----------------|-------------------|-----------------|
|-----------------|-------------------|-----------------|
|---------2-0-----|--------0-0-0-0-0--|---------2-0-----|
|-0-3-4-0-----4-3-|-4-3----0-0-0-0-0--|-0-3-4-0-----4-3-|


                    F#+  F#+  F6          D5 D5
  E E E E E E E E   Q.   Q.   Q    +H     q  q
|-----------------|--------------|--------------||
|-----------------|--------------|--------------||
|-----------------|--------------|--------------||
|-----------------|-4----4----3--|-(3)----0--0--||
|-------5---------|-5----5----5--|-(5)----0--0--||
|-0-3-0---3-0-3-4-|-4----4----3--|-(3)----0--0--||
|
| E E E E E E E E   Q.   Q.   Q    +H     q  q
|-----------------|--------------|--------------||
|-----------------|--------------|--------------||
|-----------------|--------------|--------------||
|-----------------|-4----4----3--|-(3)----0--0--||
|-------5---------|-5----5----5--|-(5)----0--0--||
|-0-3-0---3-0-3-4-|-4----4----3--|-(3)----0--0--||


  F#+             F6                  D5
  E E E E E E E E   E E E E E E E E   E E s s s s s s s s E E
|-----------------|-----------------|-------------------------|
|-----------------|-----------------|-------------------------|
|-----------------|-----------------|-------------------------|
|-----------------|-----------------|-0-0-0-0-0-0-0-0-0-0-0-0-|
|-5-5-5-5-5-5-5-5-|-5-5-5-5-5-5-5-5-|-0-0-0-0-0-0-0-0-0-0-0-0-|
|-4-4-4-4-4-4-4-4-|-3-3-3-3-3-3-3-3-|-0-0-0-0-0-0-0-0-0-0-0-0-|
|
| W                 W                 E E s s s s s s s s E E
|-----------------|-----------------|-------------------------|
|-----------------|-----------------|-3-3-----------------3-3-|
|-----------------|-----------------|-2-2-----------------2-2-|
|-----------------|-----------------|-0-0-0-0-0-0-0-0-0-0-0-0-|
|-----------------|-----------------|-----0-0-0-0-0-0-0-0-----|
|-----------------|-----------------|-----0-0-0-0-0-0-0-0-----|


  D5                      F#+               F6
  s s s s s s s s q  Q    E E E E E E E E   E E E E E E E E
|-----------------------|-----------------|-----------------|
|-----------------------|-----------------|-----------------|
|-----------------------|-----------------|-----------------|
|-0-0-0-0-0-0-0-0-0--0--|-----------------|-----------------|
|-0-0-0-0-0-0-0-0-0--0--|-5-5-5-5-5-5-5-5-|-5-5-5-5-5-5-5-5-|
|-0-0-0-0-0-0-0-0-0--0--|-4-4-4-4-4-4-4-4-|-3-3-3-3-3-3-3-3-|
|
| s s s s s s s s q  Q    W                 W
|-----------------------|-----------------|-----------------|
|-----------------3--3--|-----------------|-----------------|
|-----------------2--2--|-----------------|-----------------|
|-0-0-0-0-0-0-0-0-0--0--|-----------------|-----------------|
|-0-0-0-0-0-0-0-0-------|-----------------|-----------------|
|-0-0-0-0-0-0-0-0-------|-----------------|-----------------|


  D5                    D5
   E  E  E  E  E Q.      E  E  E  E  E Q.
|---------------------|---------------------|
|---------------------|---------------------|
|---------------------|---------------------|
|-12-12-12-12-12-0----|-12-12-12-12-12-0----|
|-12-12-12-12-12-0----|-12-12-12-12-12-0----|
|-12-12-12-12-12-0----|-12-12-12-12-12-0----|
|
|  E  E  E  E  E Q.      E  E  E  E  E Q.
|---------------------|---------------------|
|--3--3--3--3--3------|--3--3--3--3--3------|
|--2--2--2--2--2------|--2--2--2--2--2------|
|--0--0--0--0--0-0----|--0--0--0--0--0-0----|
|----------------0----|----------------0----|
|----------------0----|----------------0----|


  F#+               F6                D5
  E E E E E E E E   E E E E E E E E   E E E E E E E E
|-----------------|-----------------|-----------------|
|-----------------|-----------------|-----------------|
|-----------------|-----------------|-----------------|
|-----------------|-----------------|-0-0-0-0-0-0-0-0-|
|-5-5-5-5-5-5-5-5-|-5-5-5-5-5-5-5-5-|-0-0-0-0-0-0-0-0-|
|-4-4-4-4-4-4-4-4-|-3-3-3-3-3-3-3-3-|-0-0-0-0-0-0-0-0-|
|
| E E E E E E E E   E E E E E E E E   E E E E E E E E
|-----------------|-----------------|-----------------|
|-----------------|-----------------|-3-3-3-3-3-3-3-3-|
|-----------------|-----------------|-2-2-2-2-2-2-2-2-|
|-----------------|-----------------|-0-0-0-0-0-0-0-0-|
|-5-5-5-5-5-5-5-5-|-5-5-5-5-5-5-5-5-|-----------------|
|-4-4-4-4-4-4-4-4-|-3-3-3-3-3-3-3-3-|-----------------|


  D5                F#+               F6
  E E E E E E E E   E E E E E E E E   E E E E E E E E
|-----------------|-----------------|-----------------|
|-----------------|-----------------|-----------------|
|-----------------|-----------------|-----------------|
|-0-0-0-0-0-0-0-0-|-----------------|-----------------|
|-0-0-0-0-0-0-0-0-|-5-5-5-5-5-5-5-5-|-5-5-5-5-5-5-5-5-|
|-0-0-0-0-0-0-0-0-|-4-4-4-4-4-4-4-4-|-3-3-3-3-3-3-3-3-|
|
| E E E E E E E E   E E E E E E E E   E E E E E E E E
|-----------------|-----------------|-----------------|
|-3-3-3-3-3-3-3-3-|-----------------|-----------------|
|-2-2-2-2-2-2-2-2-|-----------------|-----------------|
|-0-0-0-0-0-0-0-0-|-----------------|-----------------|
|-----------------|-5-5-5-5-5-5-5-5-|-5-5-5-5-5-5-5-5-|
|-----------------|-4-4-4-4-4-4-4-4-|-3-3-3-3-3-3-3-3-|


  D5                D5              F#+               F6
  E E E E E E E E   E E E E q  q    E E E E E E E E   E E E E E E E E
|-----------------|---------------|-----------------|-----------------|
|-----------------|---------------|-----------------|-----------------|
|-----------------|---------------|-----------------|-----------------|
|-0-0-0-0-0-0-0-0-|-0-0-0-0-0--0--|-----------------|-----------------|
|-0-0-0-0-0-0-0-0-|-0-0-0-0-0--0--|-5-5-5-5-5-5-5-5-|-5-5-5-5-5-5-5-5-|
|-0-0-0-0-0-0-0-0-|-0-0-0-0-0--0--|-4-4-4-4-4-4-4-4-|-3-3-3-3-3-3-3-3-|
|
| E E E E E E E E   E E E E q  q    E E E E E E E E   E E E E E E E E
|-----------------|---------------|-----------------|-----------------|
|-3-3-3-3-3-3-3-3-|-3-3-3-3-3-----|-----------------|-----------------|
|-2-2-2-2-2-2-2-2-|-2-2-2-2-2-----|-----------------|-----------------|
|-0-0-0-0-0-0-0-0-|-0-0-0-0-0--0--|-----------------|-----------------|
|-----------------|------------0--|-5-5-5-5-5-5-5-5-|-5-5-5-5-5-5-5-5-|
|-----------------|------------0--|-4-4-4-4-4-4-4-4-|-3-3-3-3-3-3-3-3-|


  D5                D5                    F#+
  E E E E E E E E   E s s s s s s q  q    E E E E E E E E
|-----------------|---------------------|-----------------|
|-----------------|---------------------|-----------------|
|-----------------|---------------------|-----------------|
|-0-0-0-0-0-0-0-0-|-0-------------0--0--|-----------------|
|-0-0-0-0-0-0-0-0-|-0-0-0-0-0-0-0-0--0--|-5-5-5-5-5-5-5-5-|
|-0-0-0-0-0-0-0-0-|-0-0-0-0-0-0-0-0--0--|-4-4-4-4-4-4-4-4-|
|
| E E E E E E E E   E s s s s s s q  q    E E E E E E E E
|-----------------|---------------------|-----------------|
|-3-3-3-3-3-3-3-3-|-3-------------3--3--|-----------------|
|-2-2-2-2-2-2-2-2-|-2-------------2--2--|-----------------|
|-0-0-0-0-0-0-0-0-|-0-------------0--0--|-----------------|
|-----------------|---0-0-0-0-0-0-------|-5-5-5-5-5-5-5-5-|
|-----------------|---0-0-0-0-0-0-------|-4-4-4-4-4-4-4-4-|


  F6                D5               D5
  E E E E E E E E   E E E E E Q.     E E E E E Q.
|-----------------|----------------|----------------|
|-----------------|----------------|----------------|
|-----------------|----------------|----------------|
|-----------------|-0-0-0-0-0-0----|-0-0-0-0-0-0----|
|-5-5-5-5-5-5-5-5-|-0-0-0-0-0-0----|-0-0-0-0-0-0----|
|-3-3-3-3-3-3-3-3-|-0-0-0-0-0-0----|-0-0-0-0-0-0----|
|
| E E E E E E E E   E E E E E Q.     E E E E E Q.
|-----------------|----------------|----------------|
|-----------------|-3-3-3-3-3------|-3-3-3-3-3------|
|-----------------|-2-2-2-2-2------|-2-2-2-2-2------|
|-----------------|-0-0-0-0-0-0----|-0-0-0-0-0-0----|
|-5-5-5-5-5-5-5-5-|-----------0----|-----------0----|
|-3-3-3-3-3-3-3-3-|-----------0----|-----------0----|


   Bass solo
                 F#F6   D5
    Wx3          E E Q  s s s s q
||-------------|--------------------||
||o------------|-------------------o||
||-------------|--------------------||
||-------------|--------------------||
||o------------|-5-5----0-0-0-0-0--o||
||-------------|-4-3----0-0-0-0-0---||
|
|   Wx3          E E Q  s s s s q
||-------------|--------------------||
||o------------|-------------------o||
||-------------|--------------------||
||-------------|--------------------||
||o------------|-5-5----0-0-0-0-0--o||
||-------------|-4-3----0-0-0-0-0---||


                                                        F#F6D5
  E E E E E E E E   E E E E E E E E   E E E E E E E E   E E e e e E E E
|-----------------|-----------------|-----------------|-----------------|
|-----------------|-----------------|-----------------|-----------------|
|-----------------|-----------------|-----------------|-----------------|
|-----------------|-----------------|-----------------|-----------0-0-0-|
|-----------------|-2-0---------2-0-|---------2-0-2-0-|-5-5-0-0-0-0-0-0-|
|-0-3-4-3-0-3-4-0-|-----4-3-0-3-----|-4-3-0-3---------|-4-3-0-0-0-0-0-0-|
|
| E E E E E E E E   E E E E E E E E   E E E E E E E E   E E e e e E E E
|-----------------|-----------------|-----------------|-----------------|
|-----------------|-----------------|-----------------|-----------3-3-3-|
|-----------------|-----------------|-----------------|-----------2-2-2-|
|-----------------|-----------------|-----------------|-----------0-0-0-|
|-----------------|-2-0---------2-0-|---------2-0-2-0-|-5-5-0-0-0-------|
|-0-3-4-3-0-3-4-0-|-----4-3-0-3-----|-4-3-0-3---------|-4-3-0-0-0-------|


  E E E E E E E E   E E E E E E E E
|-----------------|-----------------|
|-----------------|-----------------|
|-----------------|-----------------|
|-----------------|-----------------|
|-----------------|-2-0---------2-0-|
|-0-3-4-3-0-3-4-0-|-----4-3-0-3-----|
|
| E E E E E E E E   E E E E E E E E
|-----------------|-----------------|
|-----------------|-----------------|
|-----------------|-----------------|
|-----------------|-----------------|
|-----------------|-2-0---------2-0-|
|-0-3-4-3-0-3-4-0-|-----4-3-0-3-----|


  D5                    D5
   E  E  E  E  E Q.      E  E  E  E  E Q.
|---------------------|---------------------|
|---------------------|---------------------|
|---------------------|---------------------|
|-12-12-12-12-12-0----|-12-12-12-12-12-0----|
|-12-12-12-12-12-0----|-12-12-12-12-12-0----|
|-12-12-12-12-12-0----|-12-12-12-12-12-0----|
|
|  E  E  E  E  E Q.      E  E  E  E  E Q.
|---------------------|---------------------|
|--3--3--3--3--3------|--3--3--3--3--3------|
|--2--2--2--2--2------|--2--2--2--2--2------|
|--0--0--0--0--0-0----|--0--0--0--0--0-0----|
|----------------0----|----------------0----|
|----------------0----|----------------0----|


  F#+               F6
  E E E E E E E E   E E E E E E E E   E E E E E E E E   E E E E E E E E
|-----------------|-----------------|-----------------|-----------------|
|-----------------|-----------------|-----------------|-----------------|
|-----------------|-----------------|-----------------|-----------------|
|-----------------|-----------------|-0-0-0-0-0-0-0-0-|-0-0-0-0-0-0-0-0-|
|-5-5-5-5-5-5-5-5-|-5-5-5-5-5-5-5-5-|-0-0-0-0-0-0-0-0-|-0-0-0-0-0-0-0-0-|
|-4-4-4-4-4-4-4-4-|-3-3-3-3-3-3-3-3-|-0-0-0-0-0-0-0-0-|-0-0-0-0-0-0-0-0-|
|
| E E E E E E E E   E E E E E E E E   E E E E E E E E   E E E E E E E E
|-----------------|-----------------|-----------------|-----------------|
|-----------------|-----------------|-3-3-3-3-3-3-3-3-|-3-3-3-3-3-3-3-3-|
|-----------------|-----------------|-2-2-2-2-2-2-2-2-|-2-2-2-2-2-2-2-2-|
|-----------------|-----------------|-0-0-0-0-0-0-0-0-|-0-0-0-0-0-0-0-0-|
|-5-5-5-5-5-5-5-5-|-5-5-5-5-5-5-5-5-|-----------------|-----------------|
|-4-4-4-4-4-4-4-4-|-3-3-3-3-3-3-3-3-|-----------------|-----------------|


  F#+               F6                D5                D5
  E E E E E E E E   E E E E E E E E   E E E E E E E E   E E E E q  q
|-----------------|-----------------|-----------------|---------------|
|-----------------|-----------------|-----------------|---------------|
|-----------------|-----------------|-----------------|---------------|
|-----------------|-----------------|-0-0-0-0-0-0-0-0-|-0-0-0-0-0--0--|
|-5-5-5-5-5-5-5-5-|-5-5-5-5-5-5-5-5-|-0-0-0-0-0-0-0-0-|-0-0-0-0-0--0--|
|-4-4-4-4-4-4-4-4-|-3-3-3-3-3-3-3-3-|-0-0-0-0-0-0-0-0-|-0-0-0-0-0--0--|
|
| E E E E E E E E   E E E E E E E E   E E E E E E E E   E E E E q  q
|-----------------|-----------------|-----------------|---------------|
|-----------------|-----------------|-3-3-3-3-3-3-3-3-|-3-3-3-3-------|
|-----------------|-----------------|-2-2-2-2-2-2-2-2-|-2-2-2-2-------|
|-----------------|-----------------|-0-0-0-0-0-0-0-0-|-0-0-0-0-0--0--|
|-5-5-5-5-5-5-5-5-|-5-5-5-5-5-5-5-5-|-----------------|---------0--0--|
|-4-4-4-4-4-4-4-4-|-3-3-3-3-3-3-3-3-|-----------------|---------0--0--|


  F#+               F6                D5
  E E E E E E E E   E E E E E E E E   E E s s s s s s s s E E
|-----------------|-----------------|-------------------------|
|-----------------|-----------------|-------------------------|
|-----------------|-----------------|-------------------------|
|-----------------|-----------------|-0-0-0-0-0-0-0-0-0-0-0-0-|
|-5-5-5-5-5-5-5-5-|-5-5-5-5-5-5-5-5-|-0-0-0-0-0-0-0-0-0-0-0-0-|
|-4-4-4-4-4-4-4-4-|-3-3-3-3-3-3-3-3-|-0-0-0-0-0-0-0-0-0-0-0-0-|
|
| E E E E E E E E   E E E E E E E E   E E s s s s s s s s E E
|-----------------|-----------------|-------------------------|
|-----------------|-----------------|-3-3-----------------3-3-|
|-----------------|-----------------|-2-2-----------------2-2-|
|-----------------|-----------------|-0-0-0-0-0-0-0-0-0-0-0-0-|
|-5-5-5-5-5-5-5-5-|-5-5-5-5-5-5-5-5-|-----0-0-0-0-0-0-0-0-----|
|-4-4-4-4-4-4-4-4-|-3-3-3-3-3-3-3-3-|-----0-0-0-0-0-0-0-0-----|


  D5                      F#+               F6
  s s s s s s s s q  Q    E E E E E E E E   E E E E E E E E
|-----------------------|-----------------|-----------------|
|-----------------------|-----------------|-----------------|
|-----------------------|-----------------|-----------------|
|-0-0-0-0-0-0-0-0-0--0--|-----------------|-----------------|
|-0-0-0-0-0-0-0-0-0--0--|-5-5-5-5-5-5-5-5-|-5-5-5-5-5-5-5-5-|
|-0-0-0-0-0-0-0-0-0--0--|-4-4-4-4-4-4-4-4-|-3-3-3-3-3-3-3-3-|
|
| s s s s s s s s q  Q    E E E E E E E E   E E E E E E E E
|-----------------------|-----------------|-----------------|
|-----------------3--3--|-----------------|-----------------|
|-----------------2--2--|-----------------|-----------------|
|-0-0-0-0-0-0-0-0-0--0--|-----------------|-----------------|
|-0-0-0-0-0-0-0-0-------|-5-5-5-5-5-5-5-5-|-5-5-5-5-5-5-5-5-|
|-0-0-0-0-0-0-0-0-------|-4-4-4-4-4-4-4-4-|-3-3-3-3-3-3-3-3-|


  D5                    D5
   E  E  E  E  E Q.      E  E  E  E  E Q.
|---------------------|---------------------||
|---------------------|---------------------||
|---------------------|---------------------||
|-12-12-12-12-12-0----|-12-12-12-12-12-0----||
|-12-12-12-12-12-0----|-12-12-12-12-12-0----||
|-12-12-12-12-12-0----|-12-12-12-12-12-0----||
|
|  E  E  E  E  E Q.      E  E  E  E  E Q.
|---------------------|---------------------||
|--3--3--3--3--3------|--3--3--3--3--3------||
|--2--2--2--2--2------|--2--2--2--2--2------||
|--0--0--0--0--0-0----|--0--0--0--0--0-0----||
|----------------0----|----------------0----||
|----------------0----|----------------0----||


                                                      D5
    E Q  Q  E E E   E Q  E +H       E Q  Q  E E E   E q  q  Q.
||----------------|---------------|---------------|----------------||
||o---------------|---------------|---------------|---------------o||
||----------------|---------------|---------------|----------------||
||--0-------------|---------------|-0-------------|---0--0---------||
||o---2-----------|-2-------------|---2-----------|---0--0--------o||
||-------3--4-0-0-|---3--4-(4)----|------3--4-0-0-|---0--0---------||
|
|   E Q  Q  E E E   E Q  E +H       E Q  Q  E E E   E q  q  Q.
||----------------|---------------|---------------|----------------||
||o---------------|---------------|---------------|---------------o||
||----------------|---------------|---------------|----------------||
||--0-------------|---------------|-0-------------|---0--0---------||
||o---2-----------|-2-------------|---2-----------|---0--0--------o||
||-------3--4-0-0-|---3--4-(4)----|------3--4-0-0-|---0--0---------||


                                                        D5
                   ~~~~~~~~~~~~~~~~~~~~~                 ~~~~~~~
  W                W                +W                E  Q   Q  Q.
|---------------|----------------|------------------|-----------------|
|---------------|----------------|------------------|-----------------|
|-6s============|=10-------------|-(10)-------------|---10--10s=7-----|
|---------------|----------------|------------------|-----------------|
|---------------|----------------|------------------|-----------------|
|---------------|----------------|------------------|-----------------|
|
| E Q  Q  E E E    E Q  E +H         E  Q  Q  E E E   E  q   q  q   E
|---------------|----------------|------------------|-----------------|
|---------------|----------------|------------------|-----------------|
|---------------|----------------|------------------|-----------------|
|-0-------------|----------------|---0--------------|----0---0--0-----|
|---2-----------|--2-------------|------2-----------|----0---0--0-----|
|------3--4-0-0-|----3--4-(4)----|---------3--4-0-0-|----0---0--0-----|


                                                          D5
   ~~~~~~~~~~~~~~~~~~~~~~~~~~~~~~~~~~~~~~~
  +W                +W                +W                E q  q  Q.
|-----------------|-----------------|-----------------|--------------*|
|-----------------|-----------------|-----------------|--------------*|
|-(7)-------------|-(7)-------------|-(7)-------------|--------------*|
|-----------------|-----------------|-----------------|---0--0-------*|
|-----------------|-----------------|-----------------|---0--0-------*|
|-----------------|-----------------|-----------------|---0--0-------*|
|
|  E  Q  Q  E E E    E  Q  E +H        E  Q  Q  E E E   E q  q  Q.
|-----------------|-----------------|-----------------|--------------*|
|-----------------|-----------------|-----------------|--------------*|
|-----------------|-----------------|-----------------|--------------*|
|--0--------------|-----------------|--0--------------|---0--0-------*|
|-----2-----------|--2--------------|-----2-----------|---0--0-------*|
|--------3--4-0-0-|-----3--4-(4)----|--------3--4-0-0-|---0--0-------*|



Duration Legend
---------------
W - whole; H - half; Q - quarter; E - 8th; S - 16th; T - 32nd; X - 64th; a - acciaccatura
+ - note tied to previous; . - note dotted; .. - note double dotted
Uncapitalized letters represent notes that are staccato (1/2 duration)
Irregular groupings are notated above the duration line
Duration letters will always appear directly above the note/fret number it represents the
duration for.  Duration letters with no fret number below them represent rests.  Multi-
bar rests are notated in the form Wxn, where n is the number of bars to rest for.  Low
melody durations appear below the staff

Tablature Legend
----------------
 h   - hammer-on
 p   - pull-off
 b   - bend
 pb  - pre-bend
 r   - bend release (if no number after the r, then release immediately)
 /\  - slide into or out of (from/to "nowhere")
 s   - legato slide
 S   - shift slide
 - natural harmonic
[n]  - artificial harmonic
n(n) - tapped harmonic
 ~   - vibrato
 tr  - trill
 T   - tap
 TP  - trem. picking
 PM  - palm muting
\n/  - tremolo bar dip; n = amount to dip
 \n  - tremolo bar down
 n/  - tremolo bar up
/n\  - tremolo bar inverted dip
 =   - hold bend; also acts as connecting device for hammers/pulls
 <> - volume swell (louder/softer)
 x   - on rhythm slash represents muted slash
 o   - on rhythm slash represents single note slash

Misc Legend
-----------
 |  - bar
||  - double bar
||o - repeat start
o|| - repeat end
*|  - double bar (ending)
 :  - bar (freetime)
 $  - Segno
 &  - Coda
Tempo markers -  = BPM(8/16=s8/s16), where s8 = swing 8ths, s16 = swing 16ths

Добавлено: 11.07.2012
Другие материалы по этой песне:

Страница создана 26.02.2012
http://primanota.ru/every-time-i-die/apocalypse-now-and-then-chords.htm
Привет, Гость.
Предлагаем пройти революционный курс по гитаре.
Подарок от PrimaNota.Ru, забирай!