PrimaNota.ru - самый крупный в мире бесплатный архив песенных текстов, аккордов, табулатур и нот


Every Time I Die - After One Quarter Of A Revolution - таба, видео

Регистрация Запомнить меня
Войти через:  Facebook Google Twitter Vk Yandex Mail.ru

Every Time I Die - After One Quarter Of A Revolution - таба, видео

Печатать
Просмотров: 39
--------------------------------------------------------
  After One Quarter Of A Revolution - Every Time I Die
--------------------------------------------------------
Tabbed by: millarso (Jake Miller)
E-mail: millarso2.0@gmail.com

Tuning: Drop D

Guitar 1: Left Stereo
Guitar 2: Right Stereo

INTRO
Both Guitars
E|-----------------------------------------------------------------------------|
B|-----------------------------------------------------------------------------|
G|--------------------------------------------------------5--5-5-5-------------|
D|-0------6-3-6-5-0------10-7-10--60------6-5-3--0-5--5-0-5--5-5-5-------------|
A|-0-000006-3-6-5-0-0000010-7-10--60-000006-5-3--0-5--5-0-3--3-3-3-6-5-3---3-6-|
D|-0-000006-3-6-5-0-0000010-7-10--60-000006-5-3--0-5--5-0----------------5-----|
     .....          .....            .....
              
SECTION 1
Both Guitars
E|-----------------------------------------------------------------------------|
B|-----------------------------------------------------------------------------|
G|--------------------------------------------------------5--5-5-5-------------|
D|-0------6-3-6-5-0------10-7-10-6-0------6-5-3--0-5--5-0-5--5-5-5-------------|x2
A|-0-000006-3-6-5-0-0000010-7-10-6-0-000006-5-3--0-5--5-0-3--3-3-3-6-5-3---3-6-|
D|-0-000006-3-6-5-0-0000010-7-10-6-0-000006-5-3--0-5--5-0----------------5-----|
     .....          .....            .....

SECTION 2
Both Guitars
E|------------------------------------------------------------|
B|------------------------------------------------------------|
G|------------------------------------------------------------|
D|------------------------------------------------------------|
A|-------------------3-3-3-3-3-3------------------6-5-3---3-6-|
D|-0--0-0-0-0-0-0-6--------------6--5-5-5-5-5-5-5-------5-----|

E|----------------------------------------------------------|
B|----------------------------------------------------------|
G|----------------------------------------------8--7--5-----|
D|----------------------------------------------8--7--5--6--|
A|-------------------3-3-3-3-3-3-6--5-5-5-5-5-5-6--5--3--6--|
D|-0--0-0-0-0-0-0-6--------------------------------------6--|

Guitar 1
E|------------------------------------------------------------|
B|------------------------------------------------------------|
G|------------------------------------------------------------|
D|------------------------------------------------------------|
A|-------------------3-3-3-3-3-3------------------6-5-3---3-6-|
D|-0--0-0-0-0-0-0-6--------------6--5-5-5-5-5-5-5-------5-----|
||
Guitar 2
E|---------------------------------------------------------------|
B|---------------------------------------------------------------|
G|-10-10101010101017-17171717171713-1212121212121212121212121212-|
D|--x--x-x-x-x-x-x-x--x-x-x-x-x-x-x--x-x-x-x-x-x-x-x-x-x-x-x-x-x-|
A|--8--8-8-8-8-8-815-15151515151511-1010101010101010101010101010-|
D|---------------------------------------------------------------|

Guitar 1
E|------------------------------------------------------------|
B|------------------------------------------------------------|
G|------------------------------------------------------------|
D|------------------------------------------------------------|
A|-------------------3-3-3-3-3-3------------------6-5-3---3-6-|
D|-0--0-0-0-0-0-0-6--------------6--5-5-5-5-5-5-5-------5-----|
||
Guitar 2
E|----------------------------------------------------------|
B|----------------------------------------------------------|
G|-10-101010101010---------------13-151515151515------------|
D|--x--x-x-x-x-x-x10-101010101010-x--x-x-x-x-x-x-13-12-10-6-|
A|--8--8-8-8-8-8-8-x--x-x-x-x-x-x11-131313131313-13-12-10-6-|
D|----------------10-101010101010----------------13-12-10-6-|

REPEAT SECTION 1

REPEAT SECTION 2

SECTION 3
Guitar 1
E|----------------------------------------------------------------------|
B|----------------------------------------------------------------------|
G|----------------------------------------------------------------------|
D|-10-------------6-6---------------10-------------6-6-------13-12-10-6-|x2
A|--9-0-0-0-0-0-0-5-5-0-0-0-0-0-0-0--9-0-0-0-0-0-0-5-5-0-0-0-13-12-10-6-|
D|-10-0-0-0-0-0-0-6-6-0-0-0-0-0-0-0-10-0-0-0-0-0-0-6-6-0-0-0-13-12-10-6-|
||    . . . . . .     . . . . . . .    . . . . . .     . . .
Guitar 2
E|----------------------------------------------------------------------|
B|----------------------------------------------------------------------|
G|----------------------------------------------------------------------|
D|-10-------------6-6---------------10-------------6-6-------13-12-10-6-|x2
A|--9-------------5-5----------------9-------------5-5-------13-12-10-6-|
D|-10-------------6-6---------------10-------------6-6-------13-12-10-6-|

SECTION 4
Both Guitars
E|-----------------------------------------------------------------------|
B|-----------------------------------------------------------------------|
G|-----------------------------------------------------------------------|
D|-10-----6-6-----3-6-5-3---------------10-----6-6-------13-12-10---10-6-|x2
A|--9-0-0-5-5-0-0-3-6-5-3-0-6-5-3-0-3----9-0-0-5-5-0-0-0-13-12-10-0-10-6-|
D|-10-0-0-6-6-0-0-3-6-5-3-0-----------5-10-0-0-6-6-0-0-0-13-12-10-0-10-6-|
      . .     . .         .                . .     . . .          .

E|----------------------------------------------------------------------|
B|----------------------------------------------------------------------|
G|----------------------------------------------------------------------|
D|-10-------------6-6---------------10-------------6-6-------13-12-10-6-|x2
A|--9-0-0-0-0-0-0-5-5-0-0-0-0-0-0-0--9-0-0-0-0-0-0-5-5-0-0-0-13-12-10-6-|
D|-10-0-0-0-0-0-0-6-6-0-0-0-0-0-0-0-10-0-0-0-0-0-0-6-6-0-0-0-13-12-10-6-|
      . . . . . .     . . . . . . .    . . . . . .     . . .
End with:
E|-----|
B|-----|
G|-----|
D|-10--|
A|--9--|
D|-10--|

This is a pretty fun song. Some chords might be easy to move some
up a string if you would prefer, but I wrote it down the way I play it.
Whatever you prefer.
Please rate & comment.
Thanks,
millarso

************************************

| /   slide up
| \   slide down
| h   hammer-on
| p   pull-off
| ~   vibrato
| +   harmonic
| x   Mute note
| b   Bend
| pb  Pre-bend
| br  Bend release
| pbr Pre-bend release
| brb Bend release bend

************************************
Добавлено: 24.07.2015
Другие материалы по этой песне:

Страница создана 15.05.2012
http://primanota.ru/every-time-i-die/after-one-quarter-of-a-revolution-chords.htm
Привет, Гость.
Предлагаем пройти революционный курс по гитаре.
Подарок от PrimaNota.Ru, забирай!