PrimaNota.ru - самый крупный в мире бесплатный архив песенных текстов, аккордов, табулатур и нот


Every Time I Die - A Wild Shameless Plain - текст песни, таба, видео

Регистрация Запомнить меня
Войти через:  Facebook Google Twitter Vk Yandex Mail.ru

Every Time I Die - A Wild Shameless Plain - текст песни, таба, видео

Печатать
Просмотров: 107
-----------------------------------------------------------------
A Wild, Shameless Plain - Every Time I Die
-----------------------------------------------------------------
Tabbed by: Jake Miller (millarso)
Email: millarso2.0@gmail.com
Tuning: Drop D
-----------------------------------------------------------------

Intro
Guitar 1
e|-----------------------------------|
B|-----------------------------------|
G|-----------------------------------|
D|-------------6-8--------------6-8--|
A|-------------4-6--------------4-6--|
D|-----------------------------------|

Guitar 2
e|-----------------------------------|
B|-----------------------------------|
G|-----------------------------------|
D|-0-0-0-0-0-0------0-0-0-0-0-0------|
A|-0-0-0-0-0-0-(x4)-0-0-0-0-0-0-(x4)-|
D|-0-0-0-0-0-0------0-0-0-0-0-0------|
   . . . . . .      . . . . . .

Section 1
Both Guitars
e|---------------------------------------------|
B|---------------------------------------------|
G|---------------------------------------------|
D|-000-0-0-0-0-0-0-0-0-0-3--3-6--6-5--3-5--6-5-|
A|-000-0-0-0-0-0-0-0-0-0-3--3-6--6-5--3-5--6-5-|
D|-000-0-0-0-0-0-0-0-0-0-3--3-6--6-5--3-5--6-5-|
   ... . . . . . . . . .

Guitar 1
e|--------------------------------------------------------------------|
B|--------------------------------------------------------------------|
G|-----------------------------/7-9-7-------------------5-5-5-8-8-6-8-|
D|-000-0-0-0-0-0-0-0-0-0-------/9-9-9-------5-5-5-6-6-6-5-5-5-8-8-6-8-|
A|-000-0-0-0-0-0-0-0-0-0--------------------5-5-5-6-6-6-3-3-3-6-6-4-6-|
D|-000-0-0-0-0-0-0-0-0-0--------------------5-5-5-6-6-6---------------|
   ... . . . . . . . . .

Guitar 2
e|--------------------------------------------------------------------|
B|--------------------------------------------------------------------|
G|------------------------------------------------------5-5-5-8-8-6-8-|
D|-000-0-0-0-0-0-0-0-0-0--------------------5-5-5-6-6-6-5-5-5-8-8-6-8-|
A|-000-0-0-0-0-0-0-0-0-0----------------8---5-5-5-6-6-6-3-3-3-6-6-4-6-|
D|-000-0-0-0-0-0-0-0-0-0-5-8-5--------5---6-5-5-5-6-6-6---------------|
   ... . . . . . . . . .

Both Guitars
e|---------------------------------------------|
B|---------------------------------------------|
G|---------------------------------------------|
D|-000-0-0-0-0-0-0-0-0-0-3--3-6--6-5--3-5--6-5-|
A|-000-0-0-0-0-0-0-0-0-0-3--3-6--6-5--3-5--6-5-|
D|-000-0-0-0-0-0-0-0-0-0-3--3-6--6-5--3-5--6-5-|
   ... . . . . . . . . .

Both Guitars
e|-----------------------------------------------|
B|-----------------------------------------------|
G|---------------------6-8-----------------------|
D|-000-0-0-0-0-0-0-0-0-6-8-000-0-0-0-0-0-0-0-0-0-|
A|-000-0-0-0-0-0-0-0-0-4-6-000-0-0-0-0-0-0-0-0-0-|
D|-000-0-0-0-0-0-0-0-0-----000-0-0-0-0-0-0-0-0-0-|
   ... . . . . . . . .     ... . . . . . . . . .

Section 2
Both Guitars                                  Additional Ending
e|----------------------------------------|  |---------------------------------|
B|----------------------------------------|  |---------------------------------|
G|----------------------------------------|  |---------------------------------|
D|-10-11-11-14---10-11-10-7-10-7-10---3-6-|x2|-10-11-10-7-10-7-10-11-10-7-10-7-|
A|-10-11-11-14---10-11-10-7-10-7-10---3-6-|  |-10-11-10-7-10-7-10-11-10-7-10-7-|
D|-10-11-11-14---10-11-10-7-10-7-10---3-6-|  |-10-11-10-7-10-7-10-11-10-7-10-7-|

Section 3
Both Guitars
e|----------13--------------------------------13-----------------------|
B|----10-------10-----------------------10-------10--------------------|
G|-11----11-------11-----------------11----11-------11-----------------|
D|-------------------10-11-11-14-14--------------------10-11-10-7-10-7-|
A|-------------------10-11-11-14-14--------------------10-11-10-7-10-7-|
D|-------------------10-11-11-14-14--------------------10-11-10-7-10-7-|

Guitar 1
e|----------13---------------------------------------------------------|
B|----10-------10--------------------12-15----12-15--------------------|
G|-11----11-------11-----------------------15-------15-----------------|
D|-------------------10-11-11-14-14--------------------10-11-10-7-10-7-|
A|-------------------10-11-11-14-14--------------------10-11-10-7-10-7-|
D|-------------------10-11-11-14-14--------------------10-11-10-7-10-7-|

Guitar 2
e|----------13--------------------------------13-----------------------|
B|----10-------10-----------------------10-------10--------------------|
G|-11----11-------11-----------------11----11-------11-----------------|
D|-------------------10-11-11-14-14--------------------10-11-10-7-10-7-|
A|-------------------10-11-11-14-14--------------------10-11-10-7-10-7-|
D|-------------------10-11-11-14-14--------------------10-11-10-7-10-7-|

Both Guitars
e|----------13--------------------------------13-----------------------|
B|----10-------10-----------------------10-------10--------------------|
G|-11----11-------11-----------------11----11-------11-----------------|
D|-------------------10-11-11-14-14--------------------10-11-10-7-10-7-|
A|-------------------10-11-11-14-14--------------------10-11-10-7-10-7-|
D|-------------------10-11-11-14-14--------------------10-11-10-7-10-7-|


Play Section 2 again without additional ending

Section 4
Both Guitars
e|-------------------------------------------------|
B|-------------------------------------------------|
G|-6-8---------------------------------------------|
D|-6-8-000-0-0-0-0-0-0-0-0-0-0-0-0-0-0-0-0-0-0-0-0-|
A|-4-6-000-0-0-0-0-0-0-0-0-0-0-0-0-0-0-0-0-0-0-0-0-|
D|-----000-0-0-0-0-0-0-0-0-0-0-0-0-0-0-0-0-0-0-0-0-|
       ... . . . . . . . . . . . . . . . . . . . .

e|-------------------------------------------------|
B|-------------------------------------------------|
G|-6-8---------------------------------------------|
D|-6-8-000-0-0-0-0-0-0-0-0-0-0-0-0-0-0-0-0-0-0-0-0-|
A|-4-6-000-0-0-0-0-0-0-0-0-0-0-0-0-0-0-0-0-0-0-0-0-|
D|-----000-0-0-0-0-0-0-0-0-0-0-0-0-0-0-0-0-0-0-0-0-|
       ... . . .   . . . . . . . . . . . . . . . .
(Take note of the unmuted note above)

e|-------------------------------------------------|
B|-------------------------------------------------|
G|-6-8---------------------------------------------|
D|-6-8-000-0-0-0-0-0-0-0-0-0-0-0-0-0-0-0-0-0-0-0-0-|
A|-4-6-000-0-0-0-0-0-0-0-0-0-0-0-0-0-0-0-0-0-0-0-0-|
D|-----000-0-0-0-0-0-0-0-0-0-0-0-0-0-0-0-0-0-0-0-0-|
       ... . . . . . . . . . . . . . . . . . . . .

e|-------------------------------------------------|
B|-------------------------------------------------|
G|-6-8---------------------------------------------|
D|-6-8-000-0-0-0-0-0-0-0-0-0-3--3-6--6-5--3-5--6-5-|
A|-4-6-000-0-0-0-0-0-0-0-0-0-3--3-6--6-5--3-5--6-5-|
D|-----000-0-0-0-0-0-0-0-0-0-3--3-6--6-5--3-5--6-5-|
       ... . . .   . . . . .

A good tip for this song: when riding that muted open D power chord think of them in 
groups of 3 or 6
because the song is written in either 3/4 or 3/8 time if I'm not mistaken.

This is it for the standard edition songs from Ex Lives. I'll be working on the deluxe 
edition bonuses soon. Rate and comment,
millarso

UPDATE 3/21/13: Majorly fixed section 3. Should be far easier, and closer
to how the band actually plays it after watching some live footage.
Добавлено: 22.06.2013
Другие материалы по этой песне:

Страница создана 22.06.2013
http://primanota.ru/every-time-i-die/a-wild-shameless-plain-chords.htm
Привет, Гость.
Предлагаем пройти революционный курс по гитаре.
Подарок от PrimaNota.Ru, забирай!