PrimaNota.ru - самый крупный в мире бесплатный архив песенных текстов, аккордов, табулатур и нот


Every Time I Die - A Gentlemans Sport - таба, видео

Регистрация Запомнить меня
Войти через:  Facebook Google Twitter Vk Yandex Mail.ru

Every Time I Die - A Gentlemans Sport - таба, видео

Печатать
Просмотров: 143
The song is played with two guitars but the intro and a couple of other parts have just one guitar. 
There easy to hear.

Tuning: drop D
Song: A Gentleman's Sport
Album: The Big Dirty
Tabbed By: TheWilling10

Intro

guitar 1
e|-----------------------------------------|
B|-----------------------------------------|
G|-----------------------------------------|
D|-----------------------------------------|  
A|--5-4-----4/5\4------5-4-----4/5\4-------|
E|------6-3-------6-3------6-3-------6-3---|

1st Verse

E|--------------------------------|
e|--------------------------------|
B|--------------------------------|
G|--------------------------------|
D|-7-6-3--7-6-3--7-6-3--7-6-3-6---|
A|-5-4-3--5-4-3--5-4-3--5-4-3-6---|
D|-----3------3------3------3-6---|

e|----------------------------------------------------------------------|
B|----------------------------------------------------------------------|
G|----------------------------------------------------------------------|
D|-7-6-3--7-6--3-6--7-6-3--7-6--3-6--7-6-3--7-6--3/6--7-6-3--7-6--3-6---|
A|-5-4-3--5-4--3-6--5-4-3--5-4--3-6--5-4-3--5-4--3/6--5-4-3--5-4--3-6---|
D|-----3-------3-6------3-------3-6------3-------3/6------3-------3-6---|

e|------------------------------------|    |----------------------|
B|------------------------------------|    |----------------------|
G|------------------------------------|    |----------------------|
D|---------------------7-6-3-7-6--3-6-|x2  |-7-6-3--7-6--3-6--3-6-| 
A|-----4---------------5-4-3-5-4--3-6-|    |-5-4-3--5-4--3-6--3-6-|
E|-630---636363036666------3------3-6-|    |-----3-------3-6--3-6-|

Pre-Chorus

e|-------------------------------------------------------------------------|
B|-------------------------------------------------------------------------|
G|-------------------------------------------------------------------------|
D|-------------------------------------------76-3--76--3-6--76-3--76--3-6--|
A|-----4--------------------4----------------54-3--54--3-6--54-3--54--3-6--|
E|-630---636363036666---630---636363036666------3------3-6-----3------3-6--|

e|-----------------------------------------------------------------|
B|-----------------------------------------------------------------|
G|-----------------------------------------------------------------|
D|-77777777-66666666-1010101010101010-99999999---------------------|
A|-55555555-44444444-9-9-9-9-9-9-9-9--77777777-----4---------------|
E|---------------------------------------------630---636363036666--|

Chorus x4

e|--------------------------------------------------------------------|
B|--------------------------------------------------------------------|
G|--------------------------------------------------------------------|
D|-----0------------------0------3036------0-------------0------30366-|x2
A|-----0------------------0------3036------0-------------0------30366-|
E|-9b--0--3--6036--9b-----0--3-6-3036--9b--0--36036--9b--0--3-6-30366-|

Intro x2
guitar 1                                          both guitars
e|-----------------------------------------|      |------------|
B|-----------------------------------------|      |------------|
G|-----------------------------------------|      |------------| 
D|-----------------------------------------| then |-3-6----3-6-| 
A|--5-4-----4/5\4------5-4-----4/5\4-------|      |-3-6----3-6-|
E|------6-3-------6-3------6-3-------6-3---|      |-3-6----3-6-|

2nd Verse

e|-----------------------------------------------------------------------|
B|-----------------------------------------------------------------------|
G|-----------------------------------------------------------------------|
D|----------------------------------------76-3--76--3-6--76-3--76--3-6---|x2
A|-----4--------------------4-------------54-3--54--3-6--54-3--54--3-6---|
E|-630---636363036666---630---636363036666------3------3-6-----3---3-6---|

e|---------------------------------------------|
B|---------------------------------------------|
G|---------------------------------------------|
D|-77777777-66666666-1010101010101010-99999999-|
A|-55555555-44444444-9-9-9-9-9-9-9-9--77777777-|
E|---------------------------------------------|

Chorus

e|--------------------------------------------------------------------|
B|--------------------------------------------------------------------|
G|--------------------------------------------------------------------|
D|---------------------------3036--------------------------------3-0--|x2
A|---------------------------3036--------------------------------3-0--|
E|-9b--0--3--6036--9b--0-3-6-3036--9b--0--3-6036--9b--0--3--6036-3-0--|

e|----------------------------------------------------------------------|
B|----------------------------------------------------------------------|
G|----------------------------------------------------------------------|
D|-----0---------------0------3036------0--------------0---------0--3-6-|x2
A|-----0---------------0------3036------0-----------=--0---------0--3-6-|
E|-9b--0--3--6036--9b--0--3-6-3036--9b--0--3-6036--9b--0--3--6-3-0--3-6-|

e|--------------------------------------------------------|
B|--------------------------------------------------------|
G|--------------------------------------------------------|
D|----0-3-0-(0)-----0-3-0--6------0-3-0-(0)-----0-3-0--6--|
A|----0-3-0-(0)-----0-3-0--6------0-3-0-(0)-----0-3-0--6--|
E|-9b-0-3-0-(0)--9b-0-3-0--6---9b-0-3-0-(0)--9b-0-3-0--6--|

e|--------------------------------------------------------|
B|--------------------------------------------------------|
G|--------------------------------------------------------|
D|----0-3-0-(0)----0-3-7-6-6~-----0-3-0-(0)-----0-3-0--6--|
A|----0-3-0-(0)----0-3-5-4-6~-----0-3-0-(0)-----0-3-0--6--|
E|-9b-0-3-0-(0)-9b-0-3-----6~--9b-0-3-0-(0)--9b-0-3-0--6--|



e|-------------------------------|
B|-------------------------------|
G|-------------------------------|
D|----0-3-0-(0)-----0-3-0--6-6\--|
A|----0-3-0-(0)-----0-3-0--6-6\--|
E|-9b-0-3-0-(0)--9b-0-3-0--6-6\--|


| /  slide up
| \  slide down
| h  hammer-on
| p  pull-off
| ~  vibrato
| +  harmonic
| x  Mute note
===============================================================================
Добавлено: 02.04.2012
Другие материалы по этой песне:

Страница создана 05.03.2012
http://primanota.ru/every-time-i-die/a-gentlemans-sport-chords.htm
Привет, Гость.
Предлагаем пройти революционный курс по гитаре.
Подарок от PrimaNota.Ru, забирай!