PrimaNota.ru - самый крупный в мире бесплатный архив песенных текстов, аккордов, табулатур и нот


Every Bridge Burned - Youre A Damn Lion - таба, видео

Регистрация Запомнить меня
Войти через:  Facebook Google Twitter Vk Yandex Mail.ru

Every Bridge Burned - Youre A Damn Lion - таба, видео

Печатать
Просмотров: 67
Every Bridge Burned - www.myspace.com/everybridgeburned
Aun Aprendo
#3 You're A Damn Lion


Gtrs 1 & 2
d|-----------------|
A|-----------------|
F|-----------------|
C|-----------------|
G|-00000-0---------|
C|-00000-0---------|

Gtr. 1                                                              
d|-----5-----4-----|-----5-----4-----|-----5-----4-----|-3-----3-----3---|
A|-------6-----6---|-------6-----6---|-------6-----6---|---4-----4-----4-|
F|*--------7-----7-|---------7-----7-|---------7-----7-|-----5-----5----*|
C|*----------------|-----------------|-----------------|----------------*|
G|-0---------------|-0---------------|-0---------------|-0---------------|
C|-0---------------|-0---------------|-0---------------|-0---------------|
 |
Gtr. 2
d|-----------------|-----------------|-----------------|-----------------|
A|-----------------|-----------------|-----------------|-----------------|
F|*----------7-7-7-|-----------7-7-7-|-----------7-7-7-|-----12----12-9~*|
C|*----77777-6-6-6-|-----77777-6-6-6-|-----77777-6-6-6-|---11----11-----*|
G|-0---55555-5-5-5-|-0---55555-5-5-5-|-0---55555-5-5-5-|-10----10--------|
C|-0---------------|-0---------------|-0---------------|-----------------|

Gtr. 1                                                              
d|-----5-----4-----|-----5-----4-----|-----5-----4-----|-3-----3-----3---|
A|-------6-----6---|-------6-----6---|-------6-----6---|---4-----4-----4-|
F|*--------7-----7-|---------7-----7-|---------7-----7-|-----5-----5----*|
C|*----------------|-----------------|-----------------|----------------*|
G|-0---------------|-0---------------|-0---------------|-0---------------|
C|-0---------------|-0---------------|-0---------------|-0---------------|
 |
Gtr. 2
d|-----13----12----|-----13----12----|-----13----12----|-11----11----11--|
A|-------10----10--|-------10----10--|-------10----10--|---13----13----13|
F|*--------10----10|---------10----10|---------10----10|-----12----12---*|
C|*----------------|-----------------|-----------------|----------------*|
G|-0---------------|-0---------------|-0---------------|-0---------------|
C|-0---------------|-0---------------|-0---------------|-0---------------|

Gtrs. 1 & 2
d|-----------------|-----------------|
A|---------5-6-5-6-|-5-6-------------|
F|-----------------|-----------------|
C|-----------------|-----------------|
G|-00000-0---------|-----0-0-0-0-----|
C|-00000-0---------|-----0-0-0-0-----|
                                                            (play 4 times)
d|-----------------|-----------------|-----------------|-----------------|
A|---------5-6-5-6-|-5-6---------8-6-|-------6-5-6-----|-----5-----6-8-6-|
F|*--------7-7-7-7-|-7-7---------7-7-|-------7-7-7-----|-----7-----7-7-7*|
C|*----------------|-----------------|-----------------|----------------*|
G|-00000-0---------|-----0-0-0-0-----|-00000-------0-0-|-0-0---0-0-------|
C|-00000-0---------|-----0-0-0-0-----|-00000-------0-0-|-0-0---0-0-------|

Gtrs. 1 & 2
d|-----------------|-----------------|
A|-----------------|-----------------|
F|-----------------|-----------------|
C|-------------3-2-|-----------------|
G|-5---1---3---4-3-|---3-2-3-5-4-3-2-|
C|-5---1---3-------|---6-5-6-8-7-6-5-|

d|-----------------|-----------------|-----------------|-----------------|
A|-----------------|-----------------|-----------------|-----------------|
F|-----------------|-----------------|-----------------|-----------------|
C|-----------------|-----------------|-----------------|-----------------|
G|-000---000-0-000-|---000-0-000-000-|-000---000-0-000-|---000-0-000-3---|
C|-000---000-0-000-|---000-0-000-000-|-000---000-0-000-|---000-0-000-3---|

d|-----------------|-----------------|-----------------|-----------------|
A|-----------------|-----------------|-----------------|-----------------|
F|-----------------|-----------------|-----------------|-----------------|
C|-----------------|-----------------|-------------3-2-|-----------------|
G|-000---000-0-000-|---000-0-000-000-|-5---1---3---4-3-|---3-2-3-5-4-3-2-|
C|-000---000-0-000-|---000-0-000-000-|-5---1---3-------|---6-5-6-8-7-6-5-|

d|-----------------|-----------------|-----------------|-----------------|
A|-----------------|-----------------|-----------------|-----------------|
F|-----------------|-----------------|-----------------|-----------------|
C|-----------------|-----------------|-----------------|-----------------|
G|-000---000-0-000-|---000-0-000-000-|-000---000-0-000-|---000-0-000-3---|
C|-000---000-0-000-|---000-0-000-000-|-000---000-0-000-|---000-0-000-3---|

d|-----------------|-----------------|-----------------|-----------------|
A|-----------------|-----------------|-----------------|-----------------|
F|-----------------|-----------------|-----------------|-----------------|
C|-----------------|-----------------|-------------3-2-|---2-2-2-2-2-2---|
G|-000---000-0-000-|---000-0-000-000-|-5---1---3---4-3-|---3-3-3-3-3-3-0-|
C|-000---000-0-000-|---000-0-000-000-|-5---1---3-------|---------------0-|

Gtr. 1                                                      (play 4 times)
d|-----------------|-----------------|-----------------|-----------------|
A|---------3-2-----|-----------------|-----------------|-----------------|
F|*------2-----2---|-----------------|-----------------|----------------*|
C|*----3-----------|-----------------|---------5-3-5---|---------4-2----*|
G|---5-----------5-|---5-5-5-5-5-5-3-|---3-3-3-------2-|---2-2-2-----3-0-|
C|---------------5-|---5-5-5-5-5-5-3-|---3-3-3-------2-|---2-2-2-------0-|
 |
Gtr. 2
d|-----------------|-----------------|-----------------|-----------------|
A|-----------------|---------6-5-----|-----------------|-----------------|
F|*----------------|-------5-----5---|-----------------|----------------*|
C|*----------------|-----7---------7-|---7-7-7-8-7-8-6-|---------7-5----*|
G|---0-0-0-0-0-0-5-|---8-----------8-|---8-8-8-------7-|---7-7-7-----7-0-|
C|---0-0-0-0-0-0-5-|-----------------|-----------------|---------------0-|

Keyboard
d|-----------------|
A|-9---9---9---9---|
F|-7---7---7---7---|
C|-----------------|
G|-----------------|
C|-----------------|

Gtr. 1                                                      (play 4 times)
d|-----------------|-----------------|-----------------|-----------------|
A|-----------------|-----------------|-----------------|-----------------|
F|*------------7---|-----------------|-------------7---|---53-5---------*|
C|*----------57----|---------77775577|-----------57----|----------------*|
G|---------58------|-----------------|---------58------|---------5--4--3-|
C|-00000-----------|---000-----------|-00000-----------|---------3--2--1-|
 |
Gtr. 2
d|-----------------|-----------------|-----------------|-----------------|
A|-----------------|-----------------|-----------------|-----------------|
F|*----------------|-----------------|-----------------|----------------*|
C|*----------578---|-----------------|-----------578---|---75-7---------*|
G|---------58------|---------88887788|---------58------|---------5--4--3-|
C|-00000-----------|---000-----------|-00000-----------|---------3--2--1-|

Gtr. 1
d|-----------------|-----------------|-----------------|-----------------|
A|-----------------|-----------------|-----------------|-----------------|
F|-----------------|-----------------|-----------------|-----------------|
C|-----------------|-----------------|-----------------|-787-------------|
G|-----10--8-----7-|-----10--8-----7-|-----10--8-----8-|----10-8-787-----|
C|-0-0---0---0-10--|-7-7---7---7-10--|-8-8---8---8-10--|------------10-12|
 |
Gtr. 2
d|-----------------|-----------------|-----------------|-----------------|
A|-----------------|-----------------|-----------------|-----------------|
F|-----------------|-----------------|-----------------|-575-------------|
C|-----------------|-----------------|-----------------|-----8-7-575-----|
G|-0---------------|-7---------------|-8---------------|-------------8-10|
C|-0---------------|-7---------------|-8---------------|-----------------|

Gtr. 1                                                      (play 4 times)
d|-----------------|-----------------|-----------------|-----------------|
A|-----------------|-----------------|-----------------|-----------------|
F|*----------------|-----------------|-----------------|----------------*|
C|*----------------|-----------------|-----------------|-787------------*|
G|-----10--8-----7-|-----10--8-----7-|-----10--8-----8-|----10-8-787-----|
C|-0-0---0---0-10--|-7-7---7---7-10--|-8-8---8---8-10--|------------10-12|
 |
Gtr. 2
d|-----------------|-----------------|-----------------|-----------------|
A|-----------------|-----------------|-----------------|-----------------|
F|*----------------|-----------------|-----------------|-575------------*|
C|*----------------|-----------------|-----------------|-----8-7-575----*|
G|-----10--8-----7-|-----10--8-----7-|-----10--8-----8-|-------------8-10|
C|-0-0---0---0-10--|-7-7---7---7-10--|-8-8---8---8-10--|-----------------|

Gtr. 1
d|-----------------|-----------------|-----------------|-----------------|
A|-----------------|-----------------|-----------------|-----------------|
F|-----141414131313|-----141414131313|-----141414131313|-1212121212121212|
C|-----------------|-----------------|-----------------|-----------------|
G|-0---121212111111|-0---121212111111|-0---121212111111|-1010101010101010|
C|-0---------------|-0---------------|-0---------------|-----------------|
 |
Gtr. 2
d|-----------------|-----------------|-----------------|-----------------|
A|-----------------|-----------------|-----------------|-----------------|
F|-----7-7-7-101010|-----7-7-7-101010|-----7-7-7-101010|-8-8-8-8-8-8-8-8-|
C|-----------------|-----------------|-----------------|-----------------|
G|-0---5-5-5-8-8-8-|-0---5-5-5-8-8-8-|-0---5-5-5-8-8-8-|-6-6-6-6-6-6-6-6-|
C|-0---------------|-0---------------|-0---------------|-----------------|

Gtr. 1
d|-----------------|-----------------|-----------------|-----------------|
A|-----------------|-----------------|-----------------|-----------------|
F|-----141414131313|-----141414131313|-----141414131313|-1212------------|
C|-----------------|-----------------|-----------------|-----------------|
G|-0---121212111111|-0---121212111111|-0---121212111111|-1010------------|
C|-0---------------|-0---------------|-0---------------|-----------------|
 |
Gtr. 2
d|-----------------|-----------------|-----------------|-----------------|
A|-----------------|-----------------|-----------------|-----------------|
F|-----7-7-7-101010|-----7-7-7-101010|-----7-7-7-101010|-8-8-------------|
C|-----------------|-----------------|-----------------|-----------------|
G|-0---5-5-5-8-8-8-|-0---5-5-5-8-8-8-|-0---5-5-5-8-8-8-|-6-6-------------|
C|-0---------------|-0---------------|-0---------------|-----------------|

Gtr. 1
d|-----------------|-----------------|-----------------|-----------------|
A|-----------------|-----------------|-----------------|-----------------|
F|-----141414131313|-----141414131313|-----141414131313|-1212121212121212|
C|-----------------|-----------------|-----------------|-----------------|
G|-0---121212111111|-0---121212111111|-0---121212111111|-1010101010101010|
C|-0---------------|-0---------------|-0---------------|-----------------|
 |
Gtr. 2
d|-----------------|-----------------|-----------------|-----------------|
A|-----------------|-----------------|-----------------|-----------------|
F|-----7-7-7-101010|-----7-7-7-101010|-----7-7-7-101010|-1717171717171717|
C|-----------------|-----------------|-----------------|-----------------|
G|-0---5-5-5-8-8-8-|-0---5-5-5-8-8-8-|-0---5-5-5-8-8-8-|-1515151515151515|
C|-0---------------|-0---------------|-0---------------|-----------------|

Gtr. 1
d|-----------------|-----------------|-----------------|-----------------|
A|-----------------|-----------------|-----------------|-----------------|
F|-----141414131313|-----141414131313|-----141414131313|-1212------------|
C|-----------------|-----------------|-----------------|-----------------|
G|-0---121212111111|-0---121212111111|-0---121212111111|-1010------------|
C|-0---------------|-0---------------|-0---------------|-----------------|
 |
Gtr. 2
d|-----------------|-----------------|-----------------|-----------------|
A|-----------------|-----------------|-----------------|-----------------|
F|-----7-7-7-101010|-----7-7-7-101010|-----7-7-7-101010|-8-8-------------|
C|-----------------|-----------------|-----------------|-----------------|
G|-0---5-5-5-8-8-8-|-0---5-5-5-8-8-8-|-0---5-5-5-8-8-8-|-6-6-------------|
C|-0---------------|-0---------------|-0---------------|-----------------|

Gtr. 1
d|-----------------|-----------------|-----------------|-----------------|
A|-----------------|-----------------|-----------------|-----------------|
F|-----------------|-----------------|-----------------|-------------2^~~|
C|-----------------|-----------------|-----------------|-----------------|
G|-0---------------|---1-2-3-----1---|-0-0-0-0---------|---1-2-3---------|
C|-0---------------|---3-4-5-----1---|-0-0-0-0---------|---3-4-5---------|
 |
Gtr. 2
d|-----------------|-----------------|-----------------|-----------------|
A|-----------------|-----------------|-----------------|-----------------|
F|-----------------|-----------------|-----------------|---------1----3^~|
C|-----------------|-----------------|-----------------|----------2------|
G|-0---------1-2-3-|-------------1---|-0-0-0-0---1-2-3-|-----------3p2---|
C|-0---------3-4-5-|-------------1---|-0-0-0-0---3-4-5-|-----------------|

Gtrs. 1 & 2
d|-----------------|-----------------|-----------------|-----------------|
A|-----------------|-----------------|-----------------|-----------------|
F|-----------------|-----------------|-----------------|---------1----3^~|
C|-----------------|-----------------|-----------------|----------2------|
G|-0-0-0-0---1-2-3-|---1-2-3-----1---|-0-0-0-0---1-2-3-|---1-2-3---3p2---|
C|-0-0-0-0---3-4-5-|---3-4-5-----1---|-0-0-0-0---3-4-5-|---3-4-5---------|

d|-----------------|-----------------|-----------------|-----------------|
A|-----------------|-----------------|-----------------|-----------------|
F|-----------------|-----------------|-----------------|-----------------|
C|-----------------|-----------------|-----------------|-----------------|
G|-0-0-0-0---1-2-3-|---1-2-3-----1---|-0-0-0-0---1-2-3-|---1-2-3---------|
C|-0-0-0-0---3-4-5-|---3-4-5-----1---|-0-0-0-0---3-4-5-|---3-4-5---------|

(speed pick)
d|-----------------|-----------------|-----------------|-----------------|
A|-----------------|-----------------|-----------------|-----------------|
F|-----------------|-----------------|-----------------|-----------------|
C|-----------------|-----------------|-----------------|-----------------|
G|-8---7---1---4---|-----------------|-8---7---1---4---|-----------------|
C|-----------------|-3---3---3---3---|-----------------|-3---3---3---3---|

Gtr. 1
d|-----------------|-----------------|-----------------|-----------------|
A|-----------------|-----------------|-----------------|-----------------|
F|-----------------|-----------------|-----------------|-----------------|
C|-----------------|-----------------|-----------------|-----------------|
G|-8---7---1---4---|-----------------|-8---7---1---4---|-----------------|
C|-----------------|-3---3---3---3---|-----------------|-3---3---3---3---|
 |
Gtr. 2
d|-----------------|-----------------|-----------------|-----------------|
A|-----------------|-----------------|-----------------|-----------------|
F|-----------------|-----------------|-----------------|-----------------|
C|-----------------|-----------------|-----------------|-----------------|
G|-12--10--4---7---|-----------------|-8---7---1---4---|-----------------|
C|-----------------|-6---6---6---6---|-----------------|-3---3---3---3---|
Добавлено: 20.05.2012
Другие материалы по этой песне:

Страница создана 12.05.2012
http://primanota.ru/every-bridge-burned/youre-a-damn-lion-chords.htm
Привет, Гость.
Предлагаем пройти революционный курс по гитаре.
Подарок от PrimaNota.Ru, забирай!