PrimaNota.ru - самый крупный в мире бесплатный архив песенных текстов, аккордов, табулатур и нот


Every Avenue - Mindset - текст песни, таба, бас-таба, видео

Регистрация Запомнить меня
Войти через:  Facebook Google Twitter Vk Yandex Mail.ru

Every Avenue - Mindset - текст песни, таба, бас-таба, видео

Печатать
Просмотров: 157
Tabbed by: Me ;)
E-Mail: Frankie7@post.cz

Intro:
Gtr 1

e|---------------------------------------------------|
H|---------------------------------------------------|
G|5-5-----7-----5-5-----7-----55-----55-----55-----7\|
D|5-5--5--7--2--5-5--5--7--2--55--5--55--2--55--2--7\|
A|3-3--5--5--2--3-3--5--5--2--33--5--22--2--33--2--5\|
E|-----3-----0-------3-----0------3------0------0----|

Pre verse
Gtr 1

|------------------------------------------|
|------------------------------------------|
|5-5--5-5-5--------------5-5--5-5--9--7----|
|5-5--5-5-5--5-5--5-5-5--5-5--5-5--9--7--5-|
|2-2--3-3-3--5-5--5-5-5--2-2--3-3--7--5--5-|
|------------2-2--3-3-3------------------3-|

Gtr 2

|-8-8-8-8-8|
|-8-8-8-8-8|
|----------|
|----------|
|----------|
|----------| 

I'm not quite sure about this part so this is something you can play

Verse
Gtr 1

|------------------------------------|
|------------------------------------|
|5-5--5-5-5--------5-5--5-5--9--7----|
|5-5--5-5-5--------5-5--5-5--9--7--5-|
|2-2--3-3-3--------2-2--3-3--7--5--5-|
|----------------------------------3-|

In the second part of the verse it's the same as the "pre verse" part


Gtr 2

|-12b--15b-|
|----------|
|----------|
|----------|
|----------|
|----------|

These two tones are played in the end of the second part


Chorus

Both guitars play the same chords as in the intro, just without these pauses


Verse 2
Gtr 1 
same as first verse 

Gtr 2 

|------10-------10-------10----10------|
|--------------------------------------|
|---12-------12-------12----12----14-12|
|10-------10-------10------------------|
|--------------------------------------|
|--------------------------------------|  x3

|------12------12------12------12|
|---12------12------12------12---|
|-9-------9-------9-------9------|
|--------------------------------|
|--------------------------------|
|--------------------------------|


Chorus

Bridge
Gtr 1 (clean)

|----------------------------------------------------------|
|----3-----3-----3----------------3-----3-----3-4h6-7-6-4--|
|---------------------------------------------------------7|
|--5-----5-----5----------------5-----5-----5--------------|
|----------------------------------------------------------|
|----------------------------------------------------------|

Gtr 2 (celan as well)

|-----------------------------------------------0h2-3-2-0--|
|---------------------------------------------------------3|
|------------------2h4-5-4-2-0-----------------------------|
|----------------------------------------------------------|
|2-----3----------------------2-----3----------------------|
|------------3----------------------------3----------------|

Well this part could seem a bit chaotic because the 1st guitar 
dont play the first tones.. just listen to it properly and try to
put it together somehow xD

After that
Both guitars (distortion)

   |-|
   |-|
   |5|
   |5|
   |3|
   |-|
PM  .
Play it as many times as needed

Outro
Both Guitars

|---------------------------------------------------------|
|---------------------------------------------------------|
|9-9-9-9---11---9-9-9-9---11---9-9-9-9---9-9---9-9-9-13-11|
|9-9-9-9-9-11-6-9-9-9-9-9-11-6-9-9-9-9-9-9-9-6-9-9-9-13-11|
|7-7-7-7-9-9--6-7-7-7-7-9-9--6-7-7-7-7-7-6-6-6-7-7-7-11-9-|
|--------7----4---------7----4---------7-----4------------|

|x-x-x------------------------------------|
|x-x-x------------------------------------|
|x-x-x-9-9-9-9-9-----------9-9-9-9-13-11--|
|x-x-x-9-9-9-9-9-9-9-9-9-9-9-9-9-9-13-11-9|
|x-x-x-6-6-7-7-7-9-9-9-9-9-6-6-7-7-11-9--9|
|x-x-x-----------6-6-7-7-7---------------7|

Ends on B5

Well, that's it :) Hope it helped you. Let me know about any corrections or questions
Добавлено: 20.07.2012
Другие материалы по этой песне:
  • Аккорды и текст

Страница создана 08.04.2012
http://primanota.ru/every-avenue/mindset-chords.htm
Привет, Гость.
Предлагаем пройти революционный курс по гитаре.
Подарок от PrimaNota.Ru, забирай!