PrimaNota.ru - самый крупный в мире бесплатный архив песенных текстов, аккордов, табулатур и нот


Every Avenue - Days Of The Old - текст песни, таба, видео

Регистрация Запомнить меня
Войти через:  Facebook Google Twitter Vk Yandex Mail.ru

Every Avenue - Days Of The Old - текст песни, таба, видео

Печатать
Просмотров: 102
----------------------------------------------------------------------------
                   "Days of the Old" by Every Avenue
----------------------------------------------------------------------------


VERSE


Rhythm

Eb|-----------------------|
Bb|-----------------------|
Gb|-----------------------|   
Db|---7-7--7--7-7-7-7-----|
Ab|---7-7--4--5-5-5-5-----|
Eb|---5-5-----------------|

Lead

Eb|---5-5-5-5-------------|
Bb|---5-5-5-5-------------|
Gb|---7-7-7-7-------------|
Db|-----------------------|
Ab|-----------------------|
Eb|-----------------------|

Pre-Chorus


Rhythm

Eb|----------------------------------------------------------~--------|
Bb|-------------------------------------------------------------------|
Gb|-------------------------------------------------------------------|
Db|---------------------------7-7----7-7------------------------------|
Ab|---4-4----4-4--7-7----7-7--5-5----5-5--3-3-3--5-5-5----------------|
Eb|---2-2----2-2--5-5----5-5--------------1-1-1--3-3-3----------------|

Eb|----------------------------------------------------------~--------|
Bb|-------------------------------------------------------------------|
Gb|-------------------------------------------------------------------|
Db|---------------------------7-7----7-7------------------------------|
Ab|---4-4----4-4--7-7----7-7--5-5----5-5--2-2-2-2-2-2-2-2-------------|
Eb|---2-2----2-2--5-5----5-5--------------0-0-0-0-0-0-0-0-------------|


Lead

Eb|----------------|
Bb|----------------|
Gb|---7-6-4-6------|   x4
Db|-----------4----|
Ab|----------------|
Eb|----------------|


Chorus

Rhythm/Lead

Eb|-----------------------------------------------------|
Bb|-----------------------------------------------------|
Gb|-----------------------------------------------------|   x2
Db|-------------7-7-7-7-------------7-7-7-7---2-2-2-2---|
Ab|---7-7-7-7---5-5-5-5---4-4-4-4---5-5-5-5---2-2-2-2---|
Eb|---5-5-5-5-------------2-2-2-2-------------0-0-0-0---|


Solo

Eb|-------------------------------------------------------------------|
Bb|-------14--15----------------------14--15--------------------------|
Gb|---14--------------14----------14--------------11--9--7—6^---------|
Db|---------------14--------------------------14----------------------|
Ab|-------------------------------------------------------------------|
Eb|-------------------------------------------------------------------|

Bridge


Rhythm

Eb|----------------------------------------|
Bb|----------------------------------------|
Gb|----------------------------------------|   x2
Db|---------------------7-7-7-7-7-7-7-7----|
Ab|---4-4-4-4--2-2-2-2--5-5-5-5-5-5-5-5----|
Eb|---2-2-2-2--0-0-0-0---------------------|

Eb|----------------------------------------|
Bb|----------------------------------------|
Gb|---11-11-11-11--9-9-9-9--7-7-7-7-7-7-7--|   x2
Db|---11-11-11-11--9-9-9-9--7-7-7-7-7-7-7--|
Ab|---9--9--9--9---7-7-7-7--5-5-5-5-5-5-5--|
Eb|----------------------------------------|
Добавлено: 18.04.2012
Другие материалы по этой песне:

Страница создана 03.04.2012
http://primanota.ru/every-avenue/days-of-the-old-chords.htm
Привет, Гость.
Предлагаем пройти революционный курс по гитаре.
Подарок от PrimaNota.Ru, забирай!